999
dxflib 2.0.4.8
  0
SECTION
  2
HEADER
  9
$ACADVER
  1
AC1015
  9
$HANDSEED
  5
FFFF
  9
$DIMASZ
 40
2.5
  9
$DIMGAP
 40
0.625
  9
$DIMEXO
 40
0.625
  9
$INSUNITS
 70
4
  9
$DIMTXT
 40
2.5
  9
$GRIDMODE
 70
1
  9
$DIMSTYLE
  2
Standard
  9
$PSVPSCALE
 40
0.05
  9
$PLIMMAX
 10
210.0
 20
297.0
  9
$PLIMMIN
 10
0.0
 20
0.0
  9
$DIMEXE
 40
1.25
  9
$PINSBASE
 10
149.6551381564226801
 20
163.8219945865894545
 30
0.0
  0
ENDSEC
  0
SECTION
  2
TABLES
  0
TABLE
  2
VPORT
  5
8
100
AcDbSymbolTable
 70
1
  0
VPORT
  5
30
100
AcDbSymbolTableRecord
100
AcDbViewportTableRecord
  2
*Active
 70
0
 10
0.0
 20
0.0
 11
1.0
 21
1.0
 12
286.3055555555554861
 22
148.5
 13
0.0
 23
0.0
 14
10.0
 24
10.0
 15
10.0
 25
10.0
 16
0.0
 26
0.0
 36
1.0
 17
0.0
 27
0.0
 37
0.0
 40
297.0
 41
1.92798353909465
 42
50.0
 43
0.0
 44
0.0
 50
0.0
 51
0.0
 71
0
 72
100
 73
1
 74
3
 75
1
 76
1
 77
0
 78
0
281
0
 65
1
110
0.0
120
0.0
130
0.0
111
1.0
121
0.0
131
0.0
112
0.0
122
1.0
132
0.0
 79
0
146
0.0
  0
ENDTAB
  0
TABLE
  2
LTYPE
  5
5
100
AcDbSymbolTable
 70
21
  0
LTYPE
  5
14
100
AcDbSymbolTableRecord
100
AcDbLinetypeTableRecord
  2
ByBlock
 70
0
  3

 72
65
 73
0
 40
0.0
  0
LTYPE
  5
15
100
AcDbSymbolTableRecord
100
AcDbLinetypeTableRecord
  2
ByLayer
 70
0
  3

 72
65
 73
0
 40
0.0
  0
LTYPE
  5
16
100
AcDbSymbolTableRecord
100
AcDbLinetypeTableRecord
  2
CONTINUOUS
 70
0
  3
Solid line
 72
65
 73
0
 40
0.0
  0
LTYPE
  5
31
100
AcDbSymbolTableRecord
100
AcDbLinetypeTableRecord
  2
DOT
 70
0
  3
Dot . . . . . . . . . . . . . . . . . . . . . .
 72
65
 73
2
 40
6.3499999999999996
 49
0.0
 74
0
 49
-6.3499999999999996
 74
0
  0
LTYPE
  5
32
100
AcDbSymbolTableRecord
100
AcDbLinetypeTableRecord
  2
DOT2
 70
0
  3
Dot (.5x) .....................................
 72
65
 73
2
 40
3.1749999999999998
 49
0.0
 74
0
 49
-3.1749999999999998
 74
0
  0
LTYPE
  5
33
100
AcDbSymbolTableRecord
100
AcDbLinetypeTableRecord
  2
DOTX2
 70
0
  3
Dot (2x) .  .  .  .  .  .  .  .  .  .  .  .  .
 72
65
 73
2
 40
12.6999999999999993
 49
0.0
 74
0
 49
-12.6999999999999993
 74
0
  0
LTYPE
  5
34
100
AcDbSymbolTableRecord
100
AcDbLinetypeTableRecord
  2
DASHED
 70
0
  3
Dashed __ __ __ __ __ __ __ __ __ __ __ __ __ _
 72
65
 73
2
 40
19.0500000000000007
 49
12.6999999999999993
 74
0
 49
-6.3499999999999996
 74
0
  0
LTYPE
  5
35
100
AcDbSymbolTableRecord
100
AcDbLinetypeTableRecord
  2
DASHED2
 70
0
  3
Dashed (.5x) _ _ _ _ _ _ _ _ _ _ _ _ _ _ _ _ _
 72
65
 73
2
 40
9.5250000000000004
 49
6.3499999999999996
 74
0
 49
-3.1749999999999998
 74
0
  0
LTYPE
  5
36
100
AcDbSymbolTableRecord
100
AcDbLinetypeTableRecord
  2
DASHEDX2
 70
0
  3
Dashed (2x) ____  ____  ____  ____  ____  ___
 72
65
 73
2
 40
38.1000000000000014
 49
25.3999999999999986
 74
0
 49
-12.6999999999999993
 74
0
  0
LTYPE
  5
37
100
AcDbSymbolTableRecord
100
AcDbLinetypeTableRecord
  2
DASHDOT
 70
0
  3
Dash dot __ . __ . __ . __ . __ . __ . __ . __
 72
65
 73
4
 40
25.3999999999999986
 49
12.6999999999999993
 74
0
 49
-6.3499999999999996
 74
0
 49
0.0
 74
0
 49
-6.3499999999999996
 74
0
  0
LTYPE
  5
38
100
AcDbSymbolTableRecord
100
AcDbLinetypeTableRecord
  2
DASHDOT2
 70
0
  3
Dash dot (.5x) _._._._._._._._._._._._._._._.
 72
65
 73
4
 40
12.6999999999999993
 49
6.3499999999999996
 74
0
 49
-3.1749999999999998
 74
0
 49
0.0
 74
0
 49
-3.1749999999999998
 74
0
  0
LTYPE
  5
39
100
AcDbSymbolTableRecord
100
AcDbLinetypeTableRecord
  2
DASHDOTX2
 70
0
  3
Dash dot (2x) ____  .  ____  .  ____  .  ___
 72
65
 73
4
 40
50.7999999999999972
 49
25.3999999999999986
 74
0
 49
-12.6999999999999993
 74
0
 49
0.0
 74
0
 49
-12.6999999999999993
 74
0
  0
LTYPE
  5
3A
100
AcDbSymbolTableRecord
100
AcDbLinetypeTableRecord
  2
DIVIDE
 70
0
  3
Divide ____ . . ____ . . ____ . . ____ . . ____
 72
65
 73
6
 40
31.75
 49
12.6999999999999993
 74
0
 49
-6.3499999999999996
 74
0
 49
0.0
 74
0
 49
-6.3499999999999996
 74
0
 49
0.0
 74
0
 49
-6.3499999999999996
 74
0
  0
LTYPE
  5
3B
100
AcDbSymbolTableRecord
100
AcDbLinetypeTableRecord
  2
DIVIDE2
 70
0
  3
Divide (.5x) __..__..__..__..__..__..__..__.._
 72
65
 73
6
 40
15.875
 49
6.3499999999999996
 74
0
 49
-3.1749999999999998
 74
0
 49
0.0
 74
0
 49
-3.1749999999999998
 74
0
 49
0.0
 74
0
 49
-3.1749999999999998
 74
0
  0
LTYPE
  5
3C
100
AcDbSymbolTableRecord
100
AcDbLinetypeTableRecord
  2
DIVIDEX2
 70
0
  3
Divide (2x) ________  .  .  ________  .  .  _
 72
65
 73
6
 40
63.5
 49
25.3999999999999986
 74
0
 49
-12.6999999999999993
 74
0
 49
0.0
 74
0
 49
-12.6999999999999993
 74
0
 49
0.0
 74
0
 49
-12.6999999999999993
 74
0
  0
LTYPE
  5
3D
100
AcDbSymbolTableRecord
100
AcDbLinetypeTableRecord
  2
CENTER
 70
0
  3
Center ____ _ ____ _ ____ _ ____ _ ____ _ ____
 72
65
 73
4
 40
50.7999999999999972
 49
31.75
 74
0
 49
-6.3499999999999996
 74
0
 49
6.3499999999999996
 74
0
 49
-6.3499999999999996
 74
0
  0
LTYPE
  5
3E
100
AcDbSymbolTableRecord
100
AcDbLinetypeTableRecord
  2
CENTER2
 70
0
  3
Center (.5x) ___ _ ___ _ ___ _ ___ _ ___ _ ___
 72
65
 73
4
 40
28.5749999999999993
 49
19.0500000000000007
 74
0
 49
-3.1749999999999998
 74
0
 49
3.1749999999999998
 74
0
 49
-3.1749999999999998
 74
0
  0
LTYPE
  5
3F
100
AcDbSymbolTableRecord
100
AcDbLinetypeTableRecord
  2
CENTERX2
 70
0
  3
Center (2x) ________  __  ________  __  _____
 72
65
 73
4
 40
101.5999999999999943
 49
63.5
 74
0
 49
-12.6999999999999993
 74
0
 49
12.6999999999999993
 74
0
 49
-12.6999999999999993
 74
0
  0
LTYPE
  5
40
100
AcDbSymbolTableRecord
100
AcDbLinetypeTableRecord
  2
BORDER
 70
0
  3
Border __ __ . __ __ . __ __ . __ __ . __ __ .
 72
65
 73
6
 40
44.4500000000000028
 49
12.6999999999999993
 74
0
 49
-6.3499999999999996
 74
0
 49
12.6999999999999993
 74
0
 49
-6.3499999999999996
 74
0
 49
0.0
 74
0
 49
-6.3499999999999996
 74
0
  0
LTYPE
  5
41
100
AcDbSymbolTableRecord
100
AcDbLinetypeTableRecord
  2
BORDER2
 70
0
  3
Border (.5x) __.__.__.__.__.__.__.__.__.__.__.
 72
65
 73
6
 40
22.2250000000000014
 49
6.3499999999999996
 74
0
 49
-3.1749999999999998
 74
0
 49
6.3499999999999996
 74
0
 49
-3.1749999999999998
 74
0
 49
0.0
 74
0
 49
-3.1749999999999998
 74
0
  0
LTYPE
  5
42
100
AcDbSymbolTableRecord
100
AcDbLinetypeTableRecord
  2
BORDERX2
 70
0
  3
Border (2x) ____  ____  .  ____  ____  .  ___
 72
65
 73
6
 40
88.9000000000000057
 49
25.3999999999999986
 74
0
 49
-12.6999999999999993
 74
0
 49
25.3999999999999986
 74
0
 49
-12.6999999999999993
 74
0
 49
0.0
 74
0
 49
-12.6999999999999993
 74
0
  0
ENDTAB
  0
TABLE
  2
LAYER
  5
2
100
AcDbSymbolTable
 70
18
  0
LAYER
  5
10
100
AcDbSymbolTableRecord
100
AcDbLayerTableRecord
  2
0
 70
0
 62
7
  6
CONTINUOUS
370
0
390
F
  0
LAYER
  5
43
100
AcDbSymbolTableRecord
100
AcDbLayerTableRecord
  2
kola
 70
0
 62
9
  6
CONTINUOUS
370
0
390
F
  0
LAYER
  5
44
100
AcDbSymbolTableRecord
100
AcDbLayerTableRecord
  2
vbrake tylny
 70
0
 62
40
  6
CONTINUOUS
370
0
390
F
  0
LAYER
  5
45
100
AcDbSymbolTableRecord
100
AcDbLayerTableRecord
  2
lancuch
 70
0
 62
1
  6
DASHED2
370
0
390
F
  0
LAYER
  5
46
100
AcDbSymbolTableRecord
100
AcDbLayerTableRecord
  2
prowadzenie lancucha
 70
0
 62
72
  6
DASHED2
370
0
390
F
  0
LAYER
  5
47
100
AcDbSymbolTableRecord
100
AcDbLayerTableRecord
  2
amorek przedni
 70
0
 62
144
  6
CONTINUOUS
370
0
390
F
  0
LAYER
  5
48
100
AcDbSymbolTableRecord
100
AcDbLayerTableRecord
  2
czielowiek ce
 70
1
 62
211
  6
CONTINUOUS
370
0
390
F
  0
LAYER
  5
49
100
AcDbSymbolTableRecord
100
AcDbLayerTableRecord
  2
fotelik
 70
0
 62
2
  6
CONTINUOUS
370
0
390
F
  0
LAYER
  5
4A
100
AcDbSymbolTableRecord
100
AcDbLayerTableRecord
  2
czlowiek
 70
0
 62
40
  6
CONTINUOUS
370
0
390
F
  0
LAYER
  5
4B
100
AcDbSymbolTableRecord
100
AcDbLayerTableRecord
  2
rama przednia
 70
0
 62
3
  6
CONTINUOUS
370
0
390
F
  0
LAYER
  5
4C
100
AcDbSymbolTableRecord
100
AcDbLayerTableRecord
  2
rama tylna
 70
0
 62
4
  6
CONTINUOUS
370
0
390
F
  0
LAYER
  5
4D
100
AcDbSymbolTableRecord
100
AcDbLayerTableRecord
  2
zawias
 70
0
 62
5
  6
CONTINUOUS
370
0
390
F
  0
LAYER
  5
4E
100
AcDbSymbolTableRecord
100
AcDbLayerTableRecord
  2
wahacz przedni
 70
0
 62
96
  6
CONTINUOUS
370
0
390
F
  0
LAYER
  5
4F
100
AcDbSymbolTableRecord
100
AcDbLayerTableRecord
  2
wahacz tylny
 70
0
 62
140
  6
CONTINUOUS
370
0
390
F
  0
LAYER
  5
50
100
AcDbSymbolTableRecord
100
AcDbLayerTableRecord
  2
amorek tylny
 70
0
 62
165
  6
CONTINUOUS
370
0
390
F
  0
LAYER
  5
51
100
AcDbSymbolTableRecord
100
AcDbLayerTableRecord
  2
vbrake przedni
 70
0
 62
20
  6
CONTINUOUS
370
0
390
F
  0
LAYER
  5
52
100
AcDbSymbolTableRecord
100
AcDbLayerTableRecord
  2
kierownica
 70
0
 62
5
  6
CONTINUOUS
370
0
390
F
  0
LAYER
  5
53
100
AcDbSymbolTableRecord
100
AcDbLayerTableRecord
  2
ugiete zawieszenie
 70
1
 62
8
  6
DASHED2
370
0
390
F
  0
ENDTAB
  0
TABLE
  2
STYLE
  5
3
100
AcDbSymbolTable
 70
1
  0
STYLE
  5
11
100
AcDbSymbolTableRecord
100
AcDbTextStyleTableRecord
  2
Standard
 70
0
 40
0.0
 41
0.75
 50
0.0
 71
0
 42
2.5
  3
txt
  4

  0
ENDTAB
  0
TABLE
  2
VIEW
  5
6
100
AcDbSymbolTable
 70
0
  0
ENDTAB
  0
TABLE
  2
UCS
  5
7
100
AcDbSymbolTable
 70
0
  0
ENDTAB
  0
TABLE
  2
APPID
  5
9
100
AcDbSymbolTable
 70
1
  0
APPID
  5
12
100
AcDbSymbolTableRecord
100
AcDbRegAppTableRecord
  2
ACAD
 70
0
  0
ENDTAB
  0
TABLE
  2
DIMSTYLE
  5
A
100
AcDbSymbolTable
 70
1
100
AcDbDimStyleTable
 71
0
  0
DIMSTYLE
105
27
100
AcDbSymbolTableRecord
100
AcDbDimStyleTableRecord
  2
Standard
 41
2.5
 42
0.625
 43
3.75
 44
1.25
 70
0
 73
0
 74
0
 77
1
 78
8
140
2.5
141
2.5
143
0.03937007874016
147
0.625
171
3
172
1
271
2
272
2
274
3
278
44
283
0
284
8
340
11
  0
ENDTAB
  0
TABLE
  2
BLOCK_RECORD
  5
1
100
AcDbSymbolTable
 70
1
  0
BLOCK_RECORD
  5
1F
100
AcDbSymbolTableRecord
100
AcDbBlockTableRecord
  2
*Model_Space
340
22
  0
BLOCK_RECORD
  5
1B
100
AcDbSymbolTableRecord
100
AcDbBlockTableRecord
  2
*Paper_Space
340
1E
  0
BLOCK_RECORD
  5
23
100
AcDbSymbolTableRecord
100
AcDbBlockTableRecord
  2
*Paper_Space0
340
26
  0
ENDTAB
  0
ENDSEC
  0
SECTION
  2
BLOCKS
  0
BLOCK
  5
20
100
AcDbEntity
  8
0
100
AcDbBlockBegin
  2
*Model_Space
 70
0
 10
0.0
 20
0.0
 30
0.0
  3
*Model_Space
  1

  0
ENDBLK
  5
21
100
AcDbEntity
  8
0
100
AcDbBlockEnd
  0
BLOCK
  5
1C
100
AcDbEntity
 67
1
  8
0
100
AcDbBlockBegin
  2
*Paper_Space
 70
0
 10
0.0
 20
0.0
 30
0.0
  3
*Paper_Space
  1

  0
ENDBLK
  5
1D
100
AcDbEntity
 67
1
  8
0
100
AcDbBlockEnd
  0
BLOCK
  5
24
100
AcDbEntity
  8
0
100
AcDbBlockBegin
  2
*Paper_Space0
 70
0
 10
0.0
 20
0.0
 30
0.0
  3
*Paper_Space0
  1

  0
ENDBLK
  5
25
100
AcDbEntity
  8
0
100
AcDbBlockEnd
  0
ENDSEC
  0
SECTION
  2
ENTITIES
  0
HATCH
  5
54
  8
amorek przedni
 62
256
370
-1
  6
ByLayer
100
AcDbEntity
100
AcDbHatch
 10
0.0
 20
0.0
 30
0.0
210
0.0
220
0.0
230
1.0
  2
ansi31
 70
0
 71
0
 91
1
 92
1
 93
4
 72
1
 10
-1364.6991840674049854
 20
532.4789351245660782
 11
-1375.7981000830827725
 21
483.7263550566668755
 72
1
 10
-1375.7981000830827725
 20
483.7263550566668755
 11
-1346.5465520423429098
 21
477.0670054472600441
 72
1
 10
-1346.5465520423429098
 20
477.0670054472600441
 11
-1335.4476360266651227
 21
525.8195855151593605
 72
1
 10
-1335.4476360266651227
 20
525.8195855151593605
 11
-1364.6991840674049854
 21
532.4789351245660782
 97
0
 75
0
 76
1
 52
0.5235987755982988
 41
2.0
 77
0
 78
1
 53
45.0
 43
0.0
 44
0.0
 45
-0.0883883476483184
 46
0.0883883476483185
 79
0
 98
0
  0
HATCH
  5
55
  8
amorek tylny
 62
256
370
-1
  6
ByLayer
100
AcDbEntity
100
AcDbHatch
 10
0.0
 20
0.0
 30
0.0
210
0.0
220
0.0
230
1.0
  2
ansi31
 70
0
 71
0
 91
1
 92
1
 93
4
 72
1
 10
-271.9655246098053567
 20
290.4090805958104511
 11
-253.0938932151750578
 21
244.1072282731957159
 72
1
 10
-253.0938932151750578
 20
244.1072282731957159
 11
-225.3127818216060518
 21
255.4302071099740772
 72
1
 10
-225.3127818216060518
 20
255.4302071099740772
 11
-244.1844132162364645
 21
301.7320594325885281
 72
1
 10
-244.1844132162364645
 20
301.7320594325885281
 11
-271.9655246098053567
 21
290.4090805958104511
 97
0
 75
0
 76
1
 52
1.134464013796314
 41
2.0
 77
0
 78
1
 53
45.0
 43
0.0
 44
0.0
 45
-0.0883883476483184
 46
0.0883883476483185
 79
0
 98
0
  0
LINE
  5
56
100
AcDbEntity
100
AcDbLine
  8
0
 62
256
370
-1
  6
ByLayer
 10
-2070.0
 20
0.0
 30
0.0
 11
430.0
 21
0.0
 31
0.0
  0
CIRCLE
  5
57
100
AcDbEntity
100
AcDbCircle
  8
kola
 62
256
370
-1
  6
ByLayer
 10
101.0289895007436485
 20
249.3189247780651954
 30
0.0
 40
250.0
  0
CIRCLE
  5
58
100
AcDbEntity
100
AcDbCircle
  8
kola
 62
256
370
-1
  6
ByLayer
 10
101.0289895007436485
 20
249.3189247780651954
 30
0.0
 40
210.0
  0
CIRCLE
  5
59
100
AcDbEntity
100
AcDbCircle
  8
kola
 62
256
370
-1
  6
ByLayer
 10
101.0289895007436485
 20
249.3189247780651954
 30
0.0
 40
197.0
  0
CIRCLE
  5
5A
100
AcDbEntity
100
AcDbCircle
  8
kola
 62
256
370
-1
  6
ByLayer
 10
-1440.0
 20
450.0
 30
0.0
 40
180.0
  0
CIRCLE
  5
5B
100
AcDbEntity
100
AcDbCircle
  8
prowadzenie lancucha
 62
9
370
-1
  6
ByLayer
 10
-1440.0
 20
450.0
 30
0.0
 40
132.0
  0
CIRCLE
  5
5C
100
AcDbEntity
100
AcDbCircle
  8
prowadzenie lancucha
 62
256
370
-1
  6
ByLayer
 10
-1440.0
 20
450.0
 30
0.0
 40
124.0
  0
CIRCLE
  5
5D
100
AcDbEntity
100
AcDbCircle
  8
wahacz przedni
 62
256
370
-1
  6
ByLayer
 10
-1440.0
 20
450.0
 30
0.0
 40
20.0
  0
LINE
  5
5E
100
AcDbEntity
100
AcDbLine
  8
fotelik
 62
256
370
-1
  6
ByLayer
 10
-76.5627807670358607
 20
626.4317980616173145
 30
0.0
 11
-65.4434602678260262
 21
647.0740438165769319
 31
0.0
  0
LINE
  5
5F
100
AcDbEntity
100
AcDbLine
  8
fotelik
 62
256
370
-1
  6
ByLayer
 10
-123.3697734189908033
 20
560.214719361955872
 30
0.0
 11
-106.8845622322575082
 21
580.7171541105542474
 31
0.0
  0
ARC
  5
60
100
AcDbEntity
  8
fotelik
 62
256
370
-1
  6
ByLayer
100
AcDbCircle
 10
-340.681327271441944
 20
768.7040490187155228
 30
0.0
 40
300.0
100
AcDbArc
 50
321.1985905136482984
 51
331.6900675259798277
  0
LINE
  5
61
100
AcDbEntity
100
AcDbLine
  8
fotelik
 62
256
370
-1
  6
ByLayer
 10
-134.8671514070605326
 20
545.9155854709658797
 30
0.0
 11
-123.3697734189908033
 21
560.214719361955872
 31
0.0
  0
LINE
  5
62
100
AcDbEntity
100
AcDbLine
  8
fotelik
 62
256
370
-1
  6
ByLayer
 10
-272.419052283335418
 20
448.9298934870016637
 30
0.0
 11
-252.3823501545499539
 21
457.3548401057920501
 31
0.0
  0
ARC
  5
63
100
AcDbEntity
  8
fotelik
 62
256
370
-1
  6
ByLayer
100
AcDbCircle
 10
-368.6639164462448548
 20
733.9024803791274962
 30
0.0
 40
300.0
100
AcDbArc
 50
292.8055710922653816
 51
321.1985905136482984
  0
LINE
  5
64
100
AcDbEntity
100
AcDbLine
  8
fotelik
 62
256
370
-1
  6
ByLayer
 10
-488.4096640650922154
 20
358.1110869426392469
 30
0.0
 11
-416.6814225853777316
 21
396.2496694538949669
 31
0.0
  0
LINE
  5
65
100
AcDbEntity
100
AcDbLine
  8
fotelik
 62
256
370
-1
  6
ByLayer
 10
-371.218415799892
 20
415.7998286408953845
 30
0.0
 11
-272.419052283335418
 21
448.9298934870016637
 31
0.0
  0
ARC
  5
66
100
AcDbEntity
  8
fotelik
 62
256
370
-1
  6
ByLayer
100
AcDbCircle
 10
-275.839953749611027
 20
131.365391596216682
 30
0.0
 40
300.0
100
AcDbArc
 50
108.5376777919743745
 51
118.0000000000000853
  0
LINE
  5
67
100
AcDbEntity
100
AcDbLine
  8
fotelik
 62
256
370
-1
  6
DASHED
 10
-95.3797334383378939
 20
573.8023815060964807
 30
0.0
 11
-80.0620455039631906
 21
599.2588060184255028
 31
0.0
  0
ARC
  5
68
100
AcDbEntity
  8
fotelik
 62
256
370
-1
  6
DASHED
100
AcDbCircle
 10
-352.4321332492326633
 20
728.476437997350331
 30
0.0
 40
300.0
100
AcDbArc
 50
324.565051177077919
 51
328.9637565320737167
  0
LINE
  5
69
100
AcDbEntity
100
AcDbLine
  8
fotelik
 62
256
370
-1
  6
DASHED
 10
-118.8952928193215257
 20
539.2313587506545218
 30
0.0
 11
-107.9998436100133858
 21
554.5429570866047015
 31
0.0
  0
ARC
  5
6A
100
AcDbEntity
  8
fotelik
 62
256
370
-1
  6
DASHED
100
AcDbCircle
 10
-363.3275824585409168
 20
713.1648396614000376
 30
0.0
 40
300.0
100
AcDbArc
 50
312.0362434679265107
 51
324.565051177077919
  0
ARC
  5
6B
100
AcDbEntity
  8
fotelik
 62
256
370
-1
  6
DASHED
100
AcDbCircle
 10
-354.7463001478745355
 20
720.9012956310750724
 30
0.0
 40
300.0
100
AcDbArc
 50
291.4840293767090316
 51
312.0362434679265107
  0
LINE
  5
6C
100
AcDbEntity
100
AcDbLine
  8
fotelik
 62
256
370
-1
  6
DASHED
 10
-278.2664863777899882
 20
429.8037983677402281
 30
0.0
 11
-236.9668263272935746
 21
444.7295296884111622
 31
0.0
  0
LINE
  5
6D
100
AcDbEntity
100
AcDbLine
  8
fotelik
 62
256
370
-1
  6
DASHED
 10
-352.2620932672313643
 20
403.0617248012430309
 30
0.0
 11
-278.2664863777899882
 21
429.8037983677402281
 31
0.0
  0
LINE
  5
6E
100
AcDbEntity
100
AcDbLine
  8
fotelik
 62
256
370
-1
  6
DASHED
 10
-434.746992172485875
 20
362.6185968257625518
 30
0.0
 11
-391.1379151631092554
 21
385.8059543776998908
 31
0.0
  0
ARC
  5
6F
100
AcDbEntity
  8
fotelik
 62
256
370
-1
  6
DASHED
100
AcDbCircle
 10
-250.2964463273415276
 20
120.9216765200232828
 30
0.0
 40
300.0
100
AcDbArc
 50
109.8698976458440058
 51
118.0000000000000853
  0
LINE
  5
70
100
AcDbEntity
100
AcDbLine
  8
fotelik
 62
256
370
-1
  6
ByLayer
 10
-500.9952333087262559
 20
351.4192210729702879
 30
0.0
 11
-488.4096640650922154
 21
358.1110869426392469
 31
0.0
  0
LINE
  5
71
100
AcDbEntity
100
AcDbLine
  8
fotelik
 62
256
370
-1
  6
DASHED
 10
-482.5101628872000674
 20
337.2224684706924336
 30
0.0
 11
-434.746992172485875
 21
362.6185968257625518
 31
0.0
  0
ARC
  5
72
100
AcDbEntity
  8
fotelik
 62
256
370
-1
  6
DASHED
100
AcDbCircle
 10
-623.3516317229640435
 20
602.1067463283716279
 30
0.0
 40
300.0
100
AcDbArc
 50
288.7229018885610685
 51
297.9999999999993747
  0
POINT
  5
73
100
AcDbEntity
100
AcDbPoint
  8
fotelik
 62
256
370
-1
  6
DASHED
 10
-607.5627552925246846
 20
459.2805810644034636
 30
0.0
  0
CIRCLE
  5
74
100
AcDbEntity
100
AcDbCircle
  8
czlowiek
 62
256
370
-1
  6
ByLayer
 10
-176.5808959596480463
 20
855.9013268535009047
 30
0.0
 40
10.0
  0
LINE
  5
75
100
AcDbEntity
100
AcDbLine
  8
czlowiek
 62
256
370
-1
  6
ByLayer
 10
-9.704274773545194
 20
823.4637976394884618
 30
0.0
 11
-32.9178123989180449
 21
743.5332686531506852
 31
0.0
  0
ARC
  5
76
100
AcDbEntity
  8
czlowiek
 62
256
370
-1
  6
ByLayer
100
AcDbCircle
 10
-71.3306447401786272
 20
754.6891779178499746
 30
0.0
 40
40.0
100
AcDbArc
 50
262.9217327591871367
 51
343.8055710922652111
  0
LINE
  5
77
100
AcDbEntity
100
AcDbLine
  8
czlowiek
 62
256
370
-1
  6
ByLayer
 10
-9.704274773545194
 20
823.4637976394884618
 30
0.0
 11
5.4660291994326826
 21
901.5082458671627137
 31
0.0
  0
ARC
  5
78
100
AcDbEntity
  8
czlowiek
 62
256
370
-1
  6
ByLayer
100
AcDbCircle
 10
-61.4726392831020121
 20
834.0794778820649071
 30
0.0
 40
120.0
100
AcDbArc
 50
69.7620482935922439
 51
262.9217327591871936
  0
ARC
  5
79
100
AcDbEntity
  8
czlowiek
 62
256
370
-1
  6
ByLayer
100
AcDbCircle
 10
-33.7990581384738107
 20
909.1406056822244182
 30
0.0
 40
40.0
100
AcDbArc
 50
349.0
 51
69.7620482935922297
  0
ARC
  5
7A
100
AcDbEntity
  8
czlowiek
 62
256
370
-1
  6
ByLayer
100
AcDbCircle
 10
-81.9880056663565711
 20
845.9696801641888442
 30
0.0
 40
153.7057334649557561
100
AcDbArc
 50
30.4261319043402274
 51
149.3449222049772516
  0
LINE
  5
7B
100
AcDbEntity
100
AcDbLine
  8
czlowiek
 62
256
370
-1
  6
ByLayer
 10
50.5498020557811287
 20
923.8104280036694718
 30
0.0
 11
39.1012623331886289
 21
864.9127969968097887
 31
0.0
  0
LINE
  5
7C
100
AcDbEntity
100
AcDbLine
  8
czlowiek
 62
256
370
-1
  6
ByLayer
 10
39.1012623331886289
 20
864.9127969968097887
 30
0.0
 11
-25.5206385349674747
 21
846.912521215972788
 31
0.0
  0
LINE
  5
7D
100
AcDbEntity
100
AcDbLine
  8
czlowiek
 62
256
370
-1
  6
ByLayer
 10
-25.5206385349674747
 20
846.912521215972788
 30
0.0
 11
-66.969637892289029
 21
895.7180583227062698
 31
0.0
  0
LINE
  5
7E
100
AcDbEntity
100
AcDbLine
  8
czlowiek
 62
256
370
-1
  6
ByLayer
 10
-66.969637892289029
 20
895.7180583227062698
 30
0.0
 11
-214.2137154094385778
 21
924.3394076291879173
 31
0.0
  0
LINE
  5
7F
100
AcDbEntity
100
AcDbLine
  8
czlowiek
 62
256
370
-1
  6
ByLayer
 10
-114.6718867364252219
 20
650.3112624607900898
 30
0.0
 11
-64.5099038072247595
 21
803.5554319048857224
 31
0.0
  0
LINE
  5
80
100
AcDbEntity
100
AcDbLine
  8
czlowiek
 62
256
370
-1
  6
ByLayer
 10
-114.6718867364252219
 20
650.3112624607900898
 30
0.0
 11
-607.549828496687951
 21
459.3230072786369647
 31
0.0
  0
LINE
  5
81
100
AcDbEntity
100
AcDbLine
  8
czlowiek
 62
256
370
-1
  6
ByLayer
 10
-600.0
 20
460.0
 30
0.0
 11
-617.0737412228170342
 21
469.0765862700433217
 31
0.0
  0
LINE
  5
82
100
AcDbEntity
100
AcDbLine
  8
czlowiek
 62
256
370
-1
  6
ByLayer
 10
-114.6718867364252219
 20
650.3112624607900898
 30
0.0
 11
-386.2416394827506565
 21
394.7066236744088883
 31
0.0
  0
LINE
  5
83
100
AcDbEntity
100
AcDbLine
  8
czlowiek
 62
256
370
-1
  6
ByLayer
 10
-386.2416394827506565
 20
394.7066236744088883
 30
0.0
 11
-722.3122848648973786
 21
296.949162003049139
 31
0.0
  0
LINE
  5
84
100
AcDbEntity
100
AcDbLine
  8
czlowiek
 62
256
370
-1
  6
ByLayer
 10
-1612.2502875432398923
 20
456.9059717570519297
 30
0.0
 11
-1491.3762969132162652
 21
368.0832359898520849
 31
0.0
  0
LINE
  5
85
100
AcDbEntity
100
AcDbLine
  8
czlowiek
 62
256
370
-1
  6
ByLayer
 10
-1491.3762969132162652
 20
368.0832359898520849
 30
0.0
 11
-1065.0193582280257942
 21
512.026838956405868
 31
0.0
  0
LINE
  5
86
100
AcDbEntity
100
AcDbLine
  8
czlowiek
 62
256
370
-1
  6
ByLayer
 10
-1065.0193582280257942
 20
512.026838956405868
 30
0.0
 11
-617.0737412228165795
 21
469.0765862700433217
 31
0.0
  0
LINE
  5
87
100
AcDbEntity
100
AcDbLine
  8
czlowiek
 62
256
370
-1
  6
ByLayer
 10
-1252.7531805901458029
 20
462.3880760566401023
 30
0.0
 11
-1115.6955006183629848
 21
401.4356982461254688
 31
0.0
  0
LINE
  5
88
100
AcDbEntity
100
AcDbLine
  8
czlowiek
 62
256
370
-1
  6
ByLayer
 10
-1115.6955006183629848
 20
401.4356982461254688
 30
0.0
 11
-916.5377898581742784
 21
804.9653827115447484
 31
0.0
  0
LINE
  5
89
100
AcDbEntity
100
AcDbLine
  8
czlowiek
 62
256
370
-1
  6
ByLayer
 10
-916.5377898581742784
 20
804.9653827115447484
 30
0.0
 11
-617.0737412228165795
 21
469.0765862700433217
 31
0.0
  0
CIRCLE
  5
8A
100
AcDbEntity
100
AcDbCircle
  8
amorek tylny
 62
256
370
-1
  6
ByLayer
 10
-190.8950408161286418
 20
242.4574784557670739
 30
0.0
 40
4.0
  0
LINE
  5
8B
100
AcDbEntity
100
AcDbLine
  8
amorek tylny
 62
256
370
-1
  6
ByLayer
 10
-276.595709842066924
 20
288.5219174563472961
 30
0.0
 11
-239.5542279839750677
 21
303.6192225720516262
 31
0.0
  0
LINE
  5
8C
100
AcDbEntity
100
AcDbLine
  8
amorek tylny
 62
256
370
-1
  6
ByLayer
 10
-257.7240784474365114
 20
242.2200651337330441
 30
0.0
 11
-220.6825965893446551
 21
257.3173702494371469
 31
0.0
  0
LINE
  5
8D
100
AcDbEntity
100
AcDbLine
  8
amorek tylny
 62
256
370
-1
  6
ByLayer
 10
-277.3505750978520723
 20
290.3739915492519685
 30
0.0
 11
-240.309093239760216
 21
305.4712966649561281
 31
0.0
  0
LINE
  5
8E
100
AcDbEntity
100
AcDbLine
  8
amorek tylny
 62
256
370
-1
  6
ByLayer
 10
-271.9655246098053567
 20
290.4090805958104511
 30
0.0
 11
-253.0938932151750578
 21
244.1072282731957159
 31
0.0
  0
LINE
  5
8F
100
AcDbEntity
100
AcDbLine
  8
amorek tylny
 62
256
370
-1
  6
ByLayer
 10
-244.1844132162364645
 20
301.7320594325885281
 30
0.0
 11
-225.3127818216060518
 21
255.4302071099740772
 31
0.0
  0
LINE
  5
90
100
AcDbEntity
100
AcDbLine
  8
amorek tylny
 62
256
370
-1
  6
ByLayer
 10
-253.0938932151750578
 20
244.1072282731957159
 30
0.0
 11
-225.3127818216060518
 21
255.4302071099740772
 31
0.0
  0
LINE
  5
91
100
AcDbEntity
100
AcDbLine
  8
amorek tylny
 62
256
370
-1
  6
ByLayer
 10
-244.1844132162364645
 20
301.7320594325885281
 30
0.0
 11
-271.9655246098053567
 21
290.4090805958104511
 31
0.0
  0
LINE
  5
92
100
AcDbEntity
100
AcDbLine
  8
amorek tylny
 62
256
370
-1
  6
ByLayer
 10
-257.7240784474365114
 20
242.2200651337330441
 30
0.0
 11
-242.6267733317325224
 21
205.1785832756413868
 31
0.0
  0
LINE
  5
93
100
AcDbEntity
100
AcDbLine
  8
amorek tylny
 62
256
370
-1
  6
ByLayer
 10
-242.6267733317325224
 20
205.1785832756413868
 30
0.0
 11
-176.5705941931420853
 21
232.1016500971445851
 31
0.0
  0
LINE
  5
94
100
AcDbEntity
100
AcDbLine
  8
amorek tylny
 62
256
370
-1
  6
ByLayer
 10
-256.9692131916514768
 20
240.3679910408280591
 30
0.0
 11
-217.5726148394223287
 21
256.4251905914049985
 31
0.0
  0
LINE
  5
95
100
AcDbEntity
100
AcDbLine
  8
amorek tylny
 62
256
370
-1
  6
ByLayer
 10
-189.3253636459388076
 20
252.3335157978077063
 30
0.0
 11
-220.6825965893446551
 21
257.3173702494371469
 31
0.0
  0
LINE
  5
96
100
AcDbEntity
100
AcDbLine
  8
amorek tylny
 62
256
370
-1
  6
ByLayer
 10
-181.4792128974293632
 20
245.8252944551116741
 30
0.0
 11
-176.5705941931420853
 21
232.1016500971445851
 31
0.0
  0
ARC
  5
97
100
AcDbEntity
  8
amorek tylny
 62
256
370
-1
  6
ByLayer
100
AcDbCircle
 10
-190.8950408161286418
 20
242.4574784557670739
 30
0.0
 40
10.0
100
AcDbArc
 50
19.6809125879866471
 51
80.9690647398966519
  0
LINE
  5
98
100
AcDbEntity
100
AcDbLine
  8
amorek tylny
 62
256
370
-1
  6
ByLayer
 10
-243.3816385875176138
 20
207.0306573685454623
 30
0.0
 11
-177.3254594489272336
 21
233.9537241900493143
 31
0.0
  0
CIRCLE
  5
99
100
AcDbEntity
100
AcDbCircle
  8
amorek tylny
 62
256
370
-1
  6
ByLayer
 10
-278.6583182143220938
 20
320.0773551288419867
 30
0.0
 40
3.0
  0
CIRCLE
  5
9A
100
AcDbEntity
100
AcDbCircle
  8
amorek tylny
 62
256
370
-1
  6
ByLayer
 10
-260.137577285276052
 20
327.626007686694436
 30
0.0
 40
3.0
  0
LINE
  5
9B
100
AcDbEntity
100
AcDbLine
  8
amorek tylny
 62
256
370
-1
  6
ByLayer
 10
-276.595709842066924
 20
288.5219174563472961
 30
0.0
 11
-291.693014957770913
 21
325.5633993144390388
 31
0.0
  0
LINE
  5
9C
100
AcDbEntity
100
AcDbLine
  8
amorek tylny
 62
256
370
-1
  6
ByLayer
 10
-239.5542279839750677
 20
303.6192225720516262
 30
0.0
 11
-254.6515330996793409
 21
340.6607044301433689
 31
0.0
  0
LINE
  5
9D
100
AcDbEntity
100
AcDbLine
  8
amorek tylny
 62
256
370
-1
  6
ByLayer
 10
-291.693014957770913
 20
325.5633993144390388
 30
0.0
 11
-254.6515330996793409
 21
340.6607044301433689
 31
0.0
  0
CIRCLE
  5
9E
100
AcDbEntity
100
AcDbCircle
  8
amorek tylny
 62
256
370
-1
  6
ByLayer
 10
-182.7310309769762853
 20
384.4234917946863561
 30
0.0
 40
4.0
  0
CIRCLE
  5
9F
100
AcDbEntity
100
AcDbCircle
  8
amorek tylny
 62
256
370
-1
  6
ByLayer
 10
-185.1696642031005808
 20
420.410337557943194
 30
0.0
 40
3.0
  0
CIRCLE
  5
A0
100
AcDbEntity
100
AcDbCircle
  8
amorek tylny
 62
256
370
-1
  6
ByLayer
 10
-217.3090446874277291
 20
382.1081154019943256
 30
0.0
 40
3.0
  0
LINE
  5
A1
100
AcDbEntity
100
AcDbLine
  8
amorek tylny
 62
256
370
-1
  6
ByLayer
 10
-171.0813436750455594
 20
421.64290589226772
 30
0.0
 11
-280.3552373217572153
 21
291.4153505620414535
 31
0.0
  0
LINE
  5
A2
100
AcDbEntity
100
AcDbLine
  8
amorek tylny
 62
256
370
-1
  6
ByLayer
 10
-280.3552373217572153
 20
291.4153505620414535
 30
0.0
 11
-303.3365706153265933
 21
310.6989788526377083
 31
0.0
  0
LINE
  5
A3
100
AcDbEntity
100
AcDbLine
  8
amorek tylny
 62
256
370
-1
  6
ByLayer
 10
-303.3365706153265933
 20
310.6989788526377083
 30
0.0
 11
-194.0626769686148805
 21
440.9265341828638043
 31
0.0
  0
LINE
  5
A4
100
AcDbEntity
100
AcDbLine
  8
amorek tylny
 62
256
370
-1
  6
ByLayer
 10
-194.0626769686148805
 20
440.9265341828638043
 30
0.0
 11
-171.0813436750455594
 21
421.64290589226772
 31
0.0
  0
CIRCLE
  5
A5
100
AcDbEntity
100
AcDbCircle
  8
kola
 62
256
370
-1
  6
ByLayer
 10
100.0
 20
250.0
 30
0.0
 40
20.0
  0
CIRCLE
  5
A6
100
AcDbEntity
100
AcDbCircle
  8
wahacz tylny
 62
256
370
-1
  6
ByLayer
 10
100.0
 20
250.0
 30
0.0
 40
25.0
  0
CIRCLE
  5
A7
100
AcDbEntity
100
AcDbCircle
  8
czlowiek
 62
256
370
-1
  6
ByLayer
 10
-607.5627552925246846
 20
459.2805810644034636
 30
0.0
 40
120.0
  0
LINE
  5
A8
100
AcDbEntity
100
AcDbLine
  8
zawias
 62
256
370
-1
  6
ByLayer
 10
-715.8757310620242151
 20
397.0735965502312865
 30
0.0
 11
-685.6647134067570732
 21
361.069507723639731
 31
0.0
  0
LINE
  5
A9
100
AcDbEntity
100
AcDbLine
  8
zawias
 62
256
370
-1
  6
ByLayer
 10
-725.068264379451989
 20
389.3601452339929097
 30
0.0
 11
-694.8572467241846198
 21
353.3560564074010131
 31
0.0
  0
LINE
  5
AA
100
AcDbEntity
100
AcDbLine
  8
zawias
 62
256
370
-1
  6
ByLayer
 10
-725.068264379451989
 20
389.3601452339929097
 30
0.0
 11
-715.8757310620242151
 21
397.0735965502312865
 31
0.0
  0
LINE
  5
AB
100
AcDbEntity
100
AcDbLine
  8
zawias
 62
256
370
-1
  6
ByLayer
 10
-685.6647134067570732
 20
361.069507723639731
 30
0.0
 11
-694.8572467241846198
 21
353.3560564074010131
 31
0.0
  0
LINE
  5
AC
100
AcDbEntity
100
AcDbLine
  8
rama tylna
 62
256
370
-1
  6
ByLayer
 10
-722.3036071588898039
 20
404.7340409814210034
 30
0.0
 11
-653.5253329224293566
 21
322.7672855676908057
 31
0.0
  0
LINE
  5
AD
100
AcDbEntity
100
AcDbLine
  8
rama tylna
 62
256
370
-1
  6
ByLayer
 10
-729.9640515900795208
 20
398.3061648845557556
 30
0.0
 11
-661.1857773536194145
 21
316.3394094708252169
 31
0.0
  0
LINE
  5
AE
100
AcDbEntity
100
AcDbLine
  8
rama tylna
 62
256
370
-1
  6
ByLayer
 10
-722.3036071588898039
 20
404.7340409814210034
 30
0.0
 11
-729.9640515900795208
 21
398.3061648845557556
 31
0.0
  0
LINE
  5
AF
100
AcDbEntity
100
AcDbLine
  8
rama tylna
 62
256
370
-1
  6
ByLayer
 10
-653.5253329224293566
 20
322.7672855676908057
 30
0.0
 11
-661.1857773536194145
 21
316.3394094708252169
 31
0.0
  0
LINE
  5
B0
100
AcDbEntity
100
AcDbLine
  8
zawias
 62
256
370
-1
  6
ByLayer
 10
-792.4801753739219521
 20
332.794835581577729
 30
0.0
 11
-762.2691577186544691
 21
296.7907467549856051
 31
0.0
  0
LINE
  5
B1
100
AcDbEntity
100
AcDbLine
  8
zawias
 62
256
370
-1
  6
ByLayer
 10
-783.2876420564942919
 20
340.5082868978162196
 30
0.0
 11
-753.0766244012270363
 21
304.5041980712240957
 31
0.0
  0
LINE
  5
B2
100
AcDbEntity
100
AcDbLine
  8
zawias
 62
256
370
-1
  6
ByLayer
 10
-792.4801753739219521
 20
332.794835581577729
 30
0.0
 11
-783.2876420564942919
 21
340.5082868978162196
 31
0.0
  0
LINE
  5
B3
100
AcDbEntity
100
AcDbLine
  8
zawias
 62
256
370
-1
  6
ByLayer
 10
-753.0766244012270363
 20
304.5041980712240957
 30
0.0
 11
-762.2691577186544691
 21
296.7907467549856051
 31
0.0
  0
LINE
  5
B4
100
AcDbEntity
100
AcDbLine
  8
rama tylna
 62
256
370
-1
  6
ByLayer
 10
-798.9080514707873135
 20
340.4552800127672754
 30
0.0
 11
-730.1297772343281167
 21
258.4885245990367366
 31
0.0
  0
LINE
  5
B5
100
AcDbEntity
100
AcDbLine
  8
rama tylna
 62
256
370
-1
  6
ByLayer
 10
-791.2476070395975967
 20
346.8831561096328642
 30
0.0
 11
-722.4693328031378314
 21
264.9164006959019275
 31
0.0
  0
LINE
  5
B6
100
AcDbEntity
100
AcDbLine
  8
rama tylna
 62
256
370
-1
  6
ByLayer
 10
-791.2476070395975967
 20
346.8831561096328642
 30
0.0
 11
-798.9080514707873135
 21
340.4552800127672754
 31
0.0
  0
LINE
  5
B7
100
AcDbEntity
100
AcDbLine
  8
rama tylna
 62
256
370
-1
  6
ByLayer
 10
-722.4693328031378314
 20
264.9164006959019275
 30
0.0
 11
-730.1297772343281167
 21
258.4885245990367366
 31
0.0
  0
LINE
  5
B8
100
AcDbEntity
100
AcDbLine
  8
zawias
 62
256
370
-1
  6
ByLayer
 10
-769.3398214252066509
 20
305.2172356292944642
 30
0.0
 11
-692.7353771133086866
 21
369.4959965979483059
 31
0.0
  0
LINE
  5
B9
100
AcDbEntity
100
AcDbLine
  8
zawias
 62
256
370
-1
  6
ByLayer
 10
-785.409511667370225
 20
324.36834670726887
 30
0.0
 11
-708.8050673554722607
 21
388.647107675922598
 31
0.0
  0
LINE
  5
BA
100
AcDbEntity
100
AcDbLine
  8
rama przednia
 62
256
370
-1
  6
ByLayer
 10
-755.2780043396759311
 20
311.7948720021165627
 30
0.0
 11
-701.6548933213471173
 21
356.7900046801740928
 31
0.0
  0
LINE
  5
BB
100
AcDbEntity
100
AcDbLine
  8
0
 62
256
370
-1
  6
ByLayer
 10
-1192.4930995542872552
 20
-33.5329328636197488
 30
0.0
 11
-580.0151437534536853
 21
480.3970939530726127
 31
0.0
  0
CIRCLE
  5
BC
100
AcDbEntity
100
AcDbCircle
  8
kola
 62
256
370
-1
  6
ByLayer
 10
-1100.0
 20
250.0
 30
0.0
 40
250.0
  0
CIRCLE
  5
BD
100
AcDbEntity
100
AcDbCircle
  8
kola
 62
256
370
-1
  6
ByLayer
 10
-1100.0
 20
250.0
 30
0.0
 40
210.0
  0
CIRCLE
  5
BE
100
AcDbEntity
100
AcDbCircle
  8
kola
 62
256
370
-1
  6
ByLayer
 10
-1100.0
 20
250.0
 30
0.0
 40
197.0
  0
CIRCLE
  5
BF
100
AcDbEntity
100
AcDbCircle
  8
kola
 62
256
370
-1
  6
ByLayer
 10
-1100.0
 20
250.0
 30
0.0
 40
20.0
  0
CIRCLE
  5
C0
100
AcDbEntity
100
AcDbCircle
  8
prowadzenie lancucha
 62
256
370
-1
  6
ByLayer
 10
-1100.0
 20
250.0
 30
0.0
 40
16.0
  0
CIRCLE
  5
C1
100
AcDbEntity
100
AcDbCircle
  8
prowadzenie lancucha
 62
9
370
-1
  6
ByLayer
 10
-1100.0
 20
250.0
 30
0.0
 40
24.0
  0
CIRCLE
  5
C2
100
AcDbEntity
100
AcDbCircle
  8
prowadzenie lancucha
 62
256
370
-1
  6
ByLayer
 10
-1100.0
 20
250.0
 30
0.0
 40
34.0
  0
CIRCLE
  5
C3
100
AcDbEntity
100
AcDbCircle
  8
prowadzenie lancucha
 62
9
370
-1
  6
ByLayer
 10
-1100.0
 20
250.0
 30
0.0
 40
42.0
  0
CIRCLE
  5
C4
100
AcDbEntity
100
AcDbCircle
  8
wahacz przedni
 62
256
370
-1
  6
ByLayer
 10
-1100.0
 20
250.0
 30
0.0
 40
25.0
  0
CIRCLE
  5
C5
100
AcDbEntity
100
AcDbCircle
  8
ugiete zawieszenie
 62
256
370
-1
  6
ByLayer
 10
-1063.9218504752900571
 20
314.058424487373145
 30
0.0
 40
250.0
  0
CIRCLE
  5
C6
100
AcDbEntity
100
AcDbCircle
  8
ugiete zawieszenie
 62
256
370
-1
  6
ByLayer
 10
-1063.9218504752900571
 20
314.058424487373145
 30
0.0
 40
210.0
  0
CIRCLE
  5
C7
100
AcDbEntity
100
AcDbCircle
  8
ugiete zawieszenie
 62
256
370
-1
  6
ByLayer
 10
-1063.9218504752900571
 20
314.058424487373145
 30
0.0
 40
197.0
  0
CIRCLE
  5
C8
100
AcDbEntity
100
AcDbCircle
  8
ugiete zawieszenie
 62
256
370
-1
  6
ByLayer
 10
-1063.9218504752900571
 20
314.058424487373145
 30
0.0
 40
20.0
  0
CIRCLE
  5
C9
100
AcDbEntity
100
AcDbCircle
  8
ugiete zawieszenie
 62
256
370
-1
  6
ByLayer
 10
-1063.9218504752900571
 20
314.058424487373145
 30
0.0
 40
16.0
  0
CIRCLE
  5
CA
100
AcDbEntity
100
AcDbCircle
  8
ugiete zawieszenie
 62
9
370
-1
  6
ByLayer
 10
-1063.9218504752900571
 20
314.058424487373145
 30
0.0
 40
24.0
  0
CIRCLE
  5
CB
100
AcDbEntity
100
AcDbCircle
  8
ugiete zawieszenie
 62
256
370
-1
  6
ByLayer
 10
-1063.9218504752900571
 20
314.058424487373145
 30
0.0
 40
34.0
  0
CIRCLE
  5
CC
100
AcDbEntity
100
AcDbCircle
  8
ugiete zawieszenie
 62
9
370
-1
  6
ByLayer
 10
-1063.9218504752900571
 20
314.058424487373145
 30
0.0
 40
42.0
  0
CIRCLE
  5
CD
100
AcDbEntity
100
AcDbCircle
  8
ugiete zawieszenie
 62
256
370
-1
  6
ByLayer
 10
-1063.9218504752900571
 20
314.058424487373145
 30
0.0
 40
25.0
  0
CIRCLE
  5
CE
100
AcDbEntity
100
AcDbCircle
  8
amorek przedni
 62
256
370
-1
  6
ByLayer
 10
-1325.7940406091261138
 20
446.6991630169849259
 30
0.0
 40
4.0
  0
LINE
  5
CF
100
AcDbEntity
100
AcDbLine
  8
amorek przedni
 62
256
370
-1
  6
ByLayer
 10
-1369.5744420741948488
 20
533.5888267261339024
 30
0.0
 11
-1330.5723780198752593
 21
524.7096939135915363
 31
0.0
  0
LINE
  5
D0
100
AcDbEntity
100
AcDbLine
  8
amorek przedni
 62
256
370
-1
  6
ByLayer
 10
-1380.6733580898726359
 20
484.8362466582346997
 30
0.0
 11
-1341.6712940355530463
 21
475.9571138456922768
 31
0.0
  0
LINE
  5
D1
100
AcDbEntity
100
AcDbLine
  8
amorek przedni
 62
256
370
-1
  6
ByLayer
 10
-1369.1304854335676282
 20
535.5389299288499387
 30
0.0
 11
-1330.1284213792480386
 21
526.6597971163075727
 31
0.0
  0
LINE
  5
D2
100
AcDbEntity
100
AcDbLine
  8
amorek przedni
 62
256
370
-1
  6
ByLayer
 10
-1364.6991840674049854
 20
532.4789351245660782
 30
0.0
 11
-1375.7981000830827725
 21
483.7263550566668755
 31
0.0
  0
LINE
  5
D3
100
AcDbEntity
100
AcDbLine
  8
amorek przedni
 62
256
370
-1
  6
ByLayer
 10
-1335.4476360266651227
 20
525.8195855151593605
 30
0.0
 11
-1346.5465520423429098
 21
477.0670054472600441
 31
0.0
  0
LINE
  5
D4
100
AcDbEntity
100
AcDbLine
  8
amorek przedni
 62
256
370
-1
  6
ByLayer
 10
-1375.7981000830827725
 20
483.7263550566668755
 30
0.0
 11
-1346.5465520423429098
 21
477.0670054472600441
 31
0.0
  0
LINE
  5
D5
100
AcDbEntity
100
AcDbLine
  8
amorek przedni
 62
256
370
-1
  6
ByLayer
 10
-1335.4476360266651227
 20
525.8195855151593605
 30
0.0
 11
-1364.6991840674049854
 21
532.4789351245660782
 31
0.0
  0
LINE
  5
D6
100
AcDbEntity
100
AcDbLine
  8
amorek przedni
 62
256
370
-1
  6
ByLayer
 10
-1380.6733580898726359
 20
484.8362466582346997
 30
0.0
 11
-1389.5524909024152294
 21
445.8341826039152807
 31
0.0
  0
LINE
  5
D7
100
AcDbEntity
100
AcDbLine
  8
amorek przedni
 62
256
370
-1
  6
ByLayer
 10
-1389.5524909024152294
 20
445.8341826039152807
 30
0.0
 11
-1320.0
 21
430.0
 31
0.0
  0
LINE
  5
D8
100
AcDbEntity
100
AcDbLine
  8
amorek przedni
 62
256
370
-1
  6
ByLayer
 10
-1381.1173147304998565
 20
482.886143455518777
 30
0.0
 11
-1339.6354793562416035
 21
473.4424708057050566
 31
0.0
  0
LINE
  5
D9
100
AcDbEntity
100
AcDbLine
  8
amorek przedni
 62
256
370
-1
  6
ByLayer
 10
-1318.8435740423738025
 20
453.8888093576930487
 30
0.0
 11
-1341.6712940355530463
 21
475.9571138456922768
 31
0.0
  0
LINE
  5
DA
100
AcDbEntity
100
AcDbLine
  8
amorek przedni
 62
256
370
-1
  6
ByLayer
 10
-1316.1493460216602216
 20
444.0572193547350253
 30
0.0
 11
-1320.0
 21
430.0
 31
0.0
  0
ARC
  5
DB
100
AcDbEntity
  8
amorek przedni
 62
256
370
-1
  6
ByLayer
100
AcDbCircle
 10
-1325.7940406091261138
 20
446.6991630169849259
 30
0.0
 40
10.0
100
AcDbArc
 50
344.6809125879866542
 51
45.969064739896659
  0
LINE
  5
DC
100
AcDbEntity
100
AcDbLine
  8
amorek przedni
 62
256
370
-1
  6
ByLayer
 10
-1389.1085342617880087
 20
447.784285806631317
 30
0.0
 11
-1319.5560433593727794
 21
431.9501032027159795
 31
0.0
  0
CIRCLE
  5
DD
100
AcDbEntity
100
AcDbCircle
  8
amorek przedni
 62
256
370
-1
  6
ByLayer
 10
-1353.1645764512081769
 20
560.6205915637380031
 30
0.0
 40
3.0
  0
CIRCLE
  5
DE
100
AcDbEntity
100
AcDbCircle
  8
amorek przedni
 62
256
370
-1
  6
ByLayer
 10
-1333.6635444240482684
 20
556.18102515746682
 30
0.0
 40
3.0
  0
LINE
  5
DF
100
AcDbEntity
100
AcDbLine
  8
amorek przedni
 62
256
370
-1
  6
ByLayer
 10
-1369.5744420741948488
 20
533.5888267261339024
 30
0.0
 11
-1360.6953092616522554
 21
572.5908907804533783
 31
0.0
  0
LINE
  5
E0
100
AcDbEntity
100
AcDbLine
  8
amorek przedni
 62
256
370
-1
  6
ByLayer
 10
-1330.5723780198752593
 20
524.7096939135915363
 30
0.0
 11
-1321.6932452073328932
 21
563.7117579679110122
 31
0.0
  0
LINE
  5
E1
100
AcDbEntity
100
AcDbLine
  8
amorek przedni
 62
256
370
-1
  6
ByLayer
 10
-1360.6953092616522554
 20
572.5908907804533783
 30
0.0
 11
-1321.6932452073328932
 21
563.7117579679110122
 31
0.0
  0
CIRCLE
  5
E2
100
AcDbEntity
100
AcDbCircle
  8
amorek przedni
 62
256
370
-1
  6
ByLayer
 10
-1206.4580260017330602
 20
574.2270646438171298
 30
0.0
 40
3.0
  0
CIRCLE
  5
E3
100
AcDbEntity
100
AcDbCircle
  8
amorek przedni
 62
256
370
-1
  6
ByLayer
 10
-1255.9714294388115832
 20
567.2684095958137505
 30
0.0
 40
3.0
  0
LINE
  5
E4
100
AcDbEntity
100
AcDbLine
  8
amorek przedni
 62
256
370
-1
  6
ByLayer
 10
-1195.1636143047167025
 20
565.7161149660020101
 30
0.0
 11
-1363.5091859907836351
 21
542.0566878027909752
 31
0.0
  0
LINE
  5
E5
100
AcDbEntity
100
AcDbLine
  8
amorek przedni
 62
256
370
-1
  6
ByLayer
 10
-1363.5091859907836351
 20
542.0566878027909752
 30
0.0
 11
-1367.6843790195857764
 21
571.7647298650380208
 31
0.0
  0
LINE
  5
E6
100
AcDbEntity
100
AcDbLine
  8
amorek przedni
 62
256
370
-1
  6
ByLayer
 10
-1367.6843790195857764
 20
571.7647298650380208
 30
0.0
 11
-1199.3388073335186164
 21
595.424157028249283
 31
0.0
  0
LINE
  5
E7
100
AcDbEntity
100
AcDbLine
  8
amorek przedni
 62
256
370
-1
  6
ByLayer
 10
-1199.3388073335186164
 20
595.424157028249283
 30
0.0
 11
-1195.1636143047167025
 21
565.7161149660020101
 31
0.0
  0
CIRCLE
  5
E8
100
AcDbEntity
100
AcDbCircle
  8
amorek przedni
 62
256
370
-1
  6
ByLayer
 10
-1231.3570419911377485
 20
544.5850828013238925
 30
0.0
 40
4.0
  0
LINE
  5
E9
100
AcDbEntity
100
AcDbLine
  8
rama przednia
 62
256
370
-1
  6
ByLayer
 10
-755.2780043396759311
 20
311.7948720021165627
 30
0.0
 11
-794.0534322587556062
 21
358.0056275290580174
 31
0.0
  0
ARC
  5
EA
100
AcDbEntity
  8
rama przednia
 62
256
370
-1
  6
ByLayer
100
AcDbCircle
 10
-1070.0
 20
310.0
 30
0.0
 40
270.0
100
AcDbArc
 50
17.6662184902155666
 51
92.2614738707255668
  0
ARC
  5
EB
100
AcDbEntity
  8
rama przednia
 62
256
370
-1
  6
ByLayer
100
AcDbCircle
 10
-717.4489879468575282
 20
422.2843884977116318
 30
0.0
 40
100.0
100
AcDbArc
 50
197.6662184902154991
 51
219.9999999999997442
  0
ARC
  5
EC
100
AcDbEntity
  8
rama przednia
 62
256
370
-1
  6
ByLayer
100
AcDbCircle
 10
-717.4489879468575282
 20
422.2843884977116318
 30
0.0
 40
30.0
100
AcDbArc
 50
197.6662184902154991
 51
219.9999999999999716
  0
LINE
  5
ED
100
AcDbEntity
100
AcDbLine
  8
rama przednia
 62
256
370
-1
  6
ByLayer
 10
-701.6548933213471173
 20
356.7900046801740928
 30
0.0
 11
-740.4303212404269061
 21
403.0007602071154338
 31
0.0
  0
ARC
  5
EE
100
AcDbEntity
  8
fotelik
 62
256
370
-1
  6
ByLayer
100
AcDbCircle
 10
-594.8895458659046653
 20
528.0087396447545416
 30
0.0
 40
200.0
100
AcDbArc
 50
227.1358525833977069
 51
298.0000000000001137
  0
ARC
  5
EF
100
AcDbEntity
  8
rama przednia
 62
256
370
-1
  6
DASHED2
100
AcDbCircle
 10
-1070.0
 20
310.0
 30
0.0
 40
280.0
100
AcDbArc
 50
9.9010303300011149
 51
114.3717117991528625
  0
LINE
  5
F0
100
AcDbEntity
100
AcDbLine
  8
lancuch
 62
256
370
-1
  6
ByLayer
 10
-1348.8797404422457475
 20
545.5044412481822746
 30
0.0
 11
-1071.007190140714556
 21
280.3877767607852434
 31
0.0
  0
LINE
  5
F1
100
AcDbEntity
100
AcDbLine
  8
lancuch
 62
256
370
-1
  6
ByLayer
 10
-1112.4735296536298392
 20
209.8949995888291369
 30
0.0
 11
-1479.2025217685511507
 21
323.9557129934630098
 31
0.0
  0
LINE
  5
F2
100
AcDbEntity
100
AcDbLine
  8
lancuch
 62
256
370
-1
  6
ByLayer
 10
-1471.2054419319708813
 20
329.9907487156494881
 30
0.0
 11
-1104.0265086363833689
 21
234.5149353181483036
 31
0.0
  0
LINE
  5
F3
100
AcDbEntity
100
AcDbLine
  8
lancuch
 62
256
370
-1
  6
ByLayer
 10
-1088.4218204124597378
 20
261.0429052988182548
 30
0.0
 11
-1350.2691081965638205
 21
535.5825160658415598
 31
0.0
  0
ARC
  5
F4
100
AcDbEntity
  8
wahacz przedni
 62
256
370
-1
  6
ByLayer
100
AcDbCircle
 10
-1340.8040139025874851
 20
377.303342852252797
 30
0.0
 40
10.0
100
AcDbArc
 50
257.1747441146098367
 51
329.5695535724590286
  0
LINE
  5
F5
100
AcDbEntity
100
AcDbLine
  8
amorek przedni
 62
256
370
-1
  6
ByLayer
 10
-1380.4679098497758787
 20
440.6892445967057483
 30
0.0
 11
-1330.4164509745205578
 21
429.2946283990616507
 31
0.0
  0
LINE
  5
F6
100
AcDbEntity
100
AcDbLine
  8
amorek przedni
 62
256
370
-1
  6
ByLayer
 10
-1380.4679098497758787
 20
440.6892445967057483
 30
0.0
 11
-1393.7866090685895415
 21
382.1861485152267051
 31
0.0
  0
LINE
  5
F7
100
AcDbEntity
100
AcDbLine
  8
amorek przedni
 62
256
370
-1
  6
ByLayer
 10
-1393.7866090685895415
 20
382.1861485152267051
 30
0.0
 11
-1343.7351501933342206
 21
370.7915323175826074
 31
0.0
  0
LINE
  5
F8
100
AcDbEntity
100
AcDbLine
  8
amorek przedni
 62
256
370
-1
  6
ByLayer
 10
-1343.7351501933342206
 20
370.7915323175826074
 30
0.0
 11
-1330.4164509745205578
 21
429.2946283990616507
 31
0.0
  0
LINE
  5
F9
100
AcDbEntity
100
AcDbLine
  8
wahacz przedni
 62
256
370
-1
  6
ByLayer
 10
-1332.0677800768830821
 20
372.437315875075285
 30
0.0
 11
-1308.7475900895667564
 21
414.3052778786925501
 31
0.0
  0
ARC
  5
FA
100
AcDbEntity
  8
wahacz przedni
 62
256
370
-1
  6
ByLayer
100
AcDbCircle
 10
-1317.4838239152711594
 20
419.1713048558701189
 30
0.0
 40
10.0
100
AcDbArc
 50
330.8824697365799921
 51
77.1747441146098936
  0
LINE
  5
FB
100
AcDbEntity
100
AcDbLine
  8
amorek przedni
 62
256
370
-1
  6
ByLayer
 10
-1380.9118664904030993
 20
438.7391413939897689
 30
0.0
 11
-1330.8604076151477784
 21
427.3445251963456712
 31
0.0
  0
LINE
  5
FC
100
AcDbEntity
100
AcDbLine
  8
amorek przedni
 62
256
370
-1
  6
ByLayer
 10
-1393.3426524279623209
 20
384.1362517179426845
 30
0.0
 11
-1343.291193552707
 21
372.7416355202985869
 31
0.0
  0
CIRCLE
  5
FD
100
AcDbEntity
100
AcDbCircle
  8
kierownica
 62
256
370
-1
  6
ByLayer
 10
-790.0
 20
540.0
 30
0.0
 40
4.0
  0
CIRCLE
  5
FE
100
AcDbEntity
100
AcDbCircle
  8
kierownica
 62
256
370
-1
  6
ByLayer
 10
-790.0
 20
540.0
 30
0.0
 40
15.0
  0
LINE
  5
FF
100
AcDbEntity
100
AcDbLine
  8
rama przednia
 62
256
370
-1
  6
ByLayer
 10
-848.0
 20
570.0
 30
0.0
 11
-845.9175932882473035
 21
572.1595328862620136
 31
0.0
  0
LINE
  5
100
100
AcDbEntity
100
AcDbLine
  8
rama przednia
 62
256
370
-1
  6
ByLayer
 10
-771.4275212228623104
 20
481.5434872662825683
 30
0.0
 11
-774.0
 21
480.0
 31
0.0
  0
LINE
  5
101
100
AcDbEntity
100
AcDbLine
  8
rama przednia
 62
256
370
-1
  6
ByLayer
 10
-830.726128722207136
 20
557.5106206261518764
 30
0.0
 11
-845.9175932882473035
 21
572.1595328862620136
 31
0.0
  0
ARC
  5
102
100
AcDbEntity
  8
rama przednia
 62
256
370
-1
  6
ByLayer
100
AcDbCircle
 10
-816.8434173105224545
 20
571.9075065345655275
 30
0.0
 40
20.0
100
AcDbArc
 50
226.0416266760097699
 51
308.7247578657480176
  0
ARC
  5
103
100
AcDbEntity
  8
rama przednia
 62
256
370
-1
  6
ByLayer
100
AcDbCircle
 10
-791.8202242373798754
 20
540.7011000060299466
 30
0.0
 40
20.0
100
AcDbArc
 50
40.3141001604972615
 51
128.7247578657478186
  0
LINE
  5
104
100
AcDbEntity
100
AcDbLine
  8
rama przednia
 62
256
370
-1
  6
ByLayer
 10
-776.5700415299240831
 20
553.6406489699318172
 30
0.0
 11
-774.4391835489901723
 21
551.1292806352596472
 31
0.0
  0
ARC
  5
105
100
AcDbEntity
  8
rama przednia
 62
256
370
-1
  6
ByLayer
100
AcDbCircle
 10
-789.6893662564459646
 20
538.1897316713577766
 30
0.0
 40
20.0
100
AcDbArc
 50
310.3377862814426749
 51
40.3141001604972615
  0
LINE
  5
106
100
AcDbEntity
100
AcDbLine
  8
rama przednia
 62
256
370
-1
  6
ByLayer
 10
-780.9475201792365624
 20
497.4101521935730261
 30
0.0
 11
-771.4275212228623104
 21
481.5434872662825683
 31
0.0
  0
ARC
  5
107
100
AcDbEntity
  8
rama przednia
 62
256
370
-1
  6
ByLayer
100
AcDbCircle
 10
-763.7976616649856396
 20
507.7000673021235571
 30
0.0
 40
20.0
100
AcDbArc
 50
130.337786281443158
 51
210.9637565320734325
  0
LINE
  5
108
100
AcDbEntity
100
AcDbLine
  8
rama przednia
 62
256
370
-1
  6
ByLayer
 10
-823.6009319284331696
 20
546.4723272167034338
 30
0.0
 11
-848.0
 21
570.0
 31
0.0
  0
ARC
  5
109
100
AcDbEntity
  8
rama przednia
 62
256
370
-1
  6
ByLayer
100
AcDbCircle
 10
-893.0144889868563496
 20
474.4878976746349508
 30
0.0
 40
100.0
100
AcDbArc
 50
40.3141001604972828
 51
46.0416266760099688
  0
LINE
  5
10A
100
AcDbEntity
100
AcDbLine
  8
rama przednia
 62
256
370
-1
  6
ByLayer
 10
-816.7635754495771607
 20
539.1856424941445312
 30
0.0
 11
-797.2908986709501278
 21
516.235702005048438
 31
0.0
  0
LINE
  5
10B
100
AcDbEntity
100
AcDbLine
  8
rama przednia
 62
256
370
-1
  6
ByLayer
 10
-787.7925196369749301
 20
502.9875327282915123
 30
0.0
 11
-774.0
 21
480.0
 31
0.0
  0
ARC
  5
10C
100
AcDbEntity
  8
rama przednia
 62
256
370
-1
  6
ByLayer
100
AcDbCircle
 10
-873.5418122082293166
 20
451.5379571855388576
 30
0.0
 40
100.0
100
AcDbArc
 50
30.9637565320735355
 51
40.3141001604972828
  0
CIRCLE
  5
10D
100
AcDbEntity
100
AcDbCircle
  8
kierownica
 62
256
370
-1
  6
ByLayer
 10
-570.0
 20
690.0
 30
0.0
 40
11.0
  0
CIRCLE
  5
10E
100
AcDbEntity
100
AcDbCircle
  8
kierownica
 62
256
370
-1
  6
ByLayer
 10
-600.0
 20
700.0
 30
0.0
 40
15.0
  0
LINE
  5
10F
100
AcDbEntity
100
AcDbLine
  8
kierownica
 62
256
370
-1
  6
ByLayer
 10
-799.6620361867417159
 20
551.4736679717557308
 30
0.0
 11
-609.6620361867417159
 21
711.4736679717557308
 31
0.0
  0
LINE
  5
110
100
AcDbEntity
100
AcDbLine
  8
kierownica
 62
256
370
-1
  6
ByLayer
 10
-590.3379638132582841
 20
688.5263320282442692
 30
0.0
 11
-780.3379638132582841
 21
528.5263320282442692
 31
0.0
  0
LINE
  5
111
100
AcDbEntity
100
AcDbLine
  8
kierownica
 62
256
370
-1
  6
ByLayer
 10
-602.9053161424074005
 20
685.2840515727776847
 30
0.0
 11
-572.1305651710987377
 21
679.2083044867035824
 31
0.0
  0
LINE
  5
112
100
AcDbEntity
100
AcDbLine
  8
kierownica
 62
256
370
-1
  6
ByLayer
 10
-565.2294348289011623
 20
699.9116955132963085
 30
0.0
 11
-593.4946838575925767
 21
713.5159484272222699
 31
0.0
  0
LINE
  5
113
100
AcDbEntity
100
AcDbLine
  8
rama tylna
 62
256
370
-1
  6
ByLayer
 10
-764.5672910480116116
 20
294.8623839259258261
 30
0.0
 11
-685.6647134067567322
 21
361.0695077236393331
 31
0.0
  0
LINE
  5
114
100
AcDbEntity
100
AcDbLine
  8
rama tylna
 62
256
370
-1
  6
ByLayer
 10
-764.5672910480116116
 20
294.8623839259258261
 30
0.0
 11
-706.5509818677954854
 21
225.7212390313463004
 31
0.0
  0
ARC
  5
115
100
AcDbEntity
  8
rama tylna
 62
256
370
-1
  6
ByLayer
100
AcDbCircle
 10
-629.9465375558974074
 20
290.0
 30
0.0
 40
100.0
100
AcDbArc
 50
219.9999999999997726
 51
270.0
  0
LINE
  5
116
100
AcDbEntity
100
AcDbLine
  8
fotelik
 62
256
370
-1
  6
ByLayer
 10
-714.3436421757862718
 20
398.3591717696043588
 30
0.0
 11
-730.9420159066283986
 21
381.4149969549044954
 31
0.0
  0
CIRCLE
  5
117
100
AcDbEntity
100
AcDbCircle
  8
ugiete zawieszenie
 62
256
370
-1
  6
ByLayer
 10
89.7674556625993318
 20
321.883611893268494
 30
0.0
 40
250.0
  0
CIRCLE
  5
118
100
AcDbEntity
100
AcDbCircle
  8
ugiete zawieszenie
 62
256
370
-1
  6
ByLayer
 10
89.7674556625993318
 20
321.883611893268494
 30
0.0
 40
210.0
  0
CIRCLE
  5
119
100
AcDbEntity
100
AcDbCircle
  8
ugiete zawieszenie
 62
256
370
-1
  6
ByLayer
 10
89.7674556625993318
 20
321.883611893268494
 30
0.0
 40
197.0
  0
LINE
  5
11A
100
AcDbEntity
100
AcDbLine
  8
fotelik
 62
256
370
-1
  6
ByLayer
 10
-59.5960261733712287
 20
666.2001389358374581
 30
0.0
 11
-85.0731225413971544
 21
582.8683115691080729
 31
0.0
  0
ARC
  5
11B
100
AcDbEntity
  8
rama tylna
 62
256
370
-1
  6
ByLayer
100
AcDbCircle
 10
-563.2255005229144444
 20
729.0541639304778982
 30
0.0
 40
500.0
100
AcDbArc
 50
320.0
 51
342.9999999999998295
  0
ARC
  5
11C
100
AcDbEntity
  8
fotelik
 62
256
370
-1
  6
ByLayer
100
AcDbCircle
 10
-609.593962051866356
 20
429.0957468448698933
 30
0.0
 40
100.0
100
AcDbArc
 50
220.0000000000001421
 51
261.5443299492387155
  0
LINE
  5
11D
100
AcDbEntity
100
AcDbLine
  8
fotelik
 62
256
370
-1
  6
ByLayer
 10
-714.3436421757862718
 20
398.3591717696043588
 30
0.0
 11
-686.1984063637639792
 21
364.8169858762157673
 31
0.0
  0
LINE
  5
11E
100
AcDbEntity
100
AcDbLine
  8
fotelik
 62
256
370
-1
  6
DASHED
 10
-686.1984063637639792
 20
364.8169858762157673
 30
0.0
 11
-654.8009963803852997
 21
327.3990097303711195
 31
0.0
  0
ARC
  5
11F
100
AcDbEntity
  8
fotelik
 62
256
370
-1
  6
DASHED
100
AcDbCircle
 10
-591.2524739663296032
 20
507.3985414498349655
 30
0.0
 40
200.0
100
AcDbArc
 50
260.3105039963256218
 51
288.7229018885610685
  0
ARC
  5
120
100
AcDbEntity
  8
fotelik
 62
256
370
-1
  6
DASHED
100
AcDbCircle
 10
-616.4987742244364881
 20
359.5383902146982109
 30
0.0
 40
50.0
100
AcDbArc
 50
220.0000000000001705
 51
260.3105039963255081
  0
LINE
  5
121
100
AcDbEntity
100
AcDbLine
  8
czielowiek ce
 62
256
370
-1
  6
ByLayer
 10
-1526.0490472866381424
 20
296.8432846354028243
 30
0.0
 11
-1409.4847130045577615
 21
202.4358909981698957
 31
0.0
  0
LINE
  5
122
100
AcDbEntity
100
AcDbLine
  8
czielowiek ce
 62
256
370
-1
  6
ByLayer
 10
-1066.4032809544360134
 20
493.6319263119023617
 30
0.0
 11
-617.0737412228170342
 21
469.0765862700433217
 31
0.0
  0
LINE
  5
123
100
AcDbEntity
100
AcDbLine
  8
czielowiek ce
 62
256
370
-1
  6
ByLayer
 10
-617.0737412228165795
 20
469.0765862700433217
 30
0.0
 11
-888.0482998918894282
 21
828.3436019479388506
 31
0.0
  0
LINE
  5
124
100
AcDbEntity
100
AcDbLine
  8
czielowiek ce
 62
256
370
-1
  6
ByLayer
 10
-888.0482998918894282
 20
828.3436019479388506
 30
0.0
 11
-1210.5772633273759311
 21
514.5362283168661861
 31
0.0
  0
LINE
  5
125
100
AcDbEntity
100
AcDbLine
  8
czielowiek ce
 62
256
370
-1
  6
ByLayer
 10
-1210.5772633273759311
 20
514.5362283168661861
 30
0.0
 11
-1333.2796748758507874
 21
600.8155317458399622
 31
0.0
  0
LINE
  5
126
100
AcDbEntity
100
AcDbLine
  8
czielowiek ce
 62
256
370
-1
  6
ByLayer
 10
-617.0737412228165795
 20
469.0765862700433217
 30
0.0
 11
-1007.6687697639533781
 21
692.539164074356222
 31
0.0
  0
LINE
  5
127
100
AcDbEntity
100
AcDbLine
  8
czielowiek ce
 62
256
370
-1
  6
ByLayer
 10
-1177.9968389011687577
 20
276.0198381553922786
 30
0.0
 11
-1324.9492700335849804
 21
306.1027732560851291
 31
0.0
  0
LINE
  5
128
100
AcDbEntity
100
AcDbLine
  8
czielowiek ce
 62
256
370
-1
  6
ByLayer
 10
-1537.2408838171409116
 20
596.8301601073145548
 30
0.0
 11
-1459.1867066482850532
 21
468.7382188054079961
 31
0.0
  0
LINE
  5
129
100
AcDbEntity
100
AcDbLine
  8
czielowiek ce
 62
256
370
-1
  6
ByLayer
 10
-1459.1867066482850532
 20
468.7382188054079961
 30
0.0
 11
-1038.194023361876134
 21
627.6884016279121852
 31
0.0
  0
LINE
  5
12A
100
AcDbEntity
100
AcDbLine
  8
czielowiek ce
 62
256
370
-1
  6
ByLayer
 10
-1038.194023361876134
 20
627.6884016279121852
 30
0.0
 11
-617.0737412228165795
 21
469.0765862700433217
 31
0.0
  0
LINE
  5
12B
100
AcDbEntity
100
AcDbLine
  8
czielowiek ce
 62
256
370
-1
  6
ByLayer
 10
-1485.7250312379187562
 20
137.7256609284515321
 30
0.0
 11
-1066.4032809544360134
 21
493.6319263119023617
 31
0.0
  0
LINE
  5
12C
100
AcDbEntity
100
AcDbLine
  8
czielowiek ce
 62
256
370
-1
  6
ByLayer
 10
-1446.8988931960875561
 20
91.9814699884350375
 30
0.0
 11
-1524.5511692797499563
 21
183.4698518684670603
 31
0.0
  0
LINE
  5
12D
100
AcDbEntity
100
AcDbLine
  8
czielowiek ce
 62
256
370
-1
  6
ByLayer
 10
-1007.6687697639533781
 20
692.539164074356222
 30
0.0
 11
-1215.8475209316616201
 21
183.4599879511786753
 31
0.0
  0
LINE
  5
12E
100
AcDbEntity
100
AcDbLine
  8
czielowiek ce
 62
256
370
-1
  6
ByLayer
 10
-1271.3834310541899413
 20
206.1703971694744268
 30
0.0
 11
-1160.3116108091326169
 21
160.7495787328833785
 31
0.0
  0
LINE
  5
12F
100
AcDbEntity
100
AcDbLine
  8
rama przednia
 62
256
370
-1
  6
ByLayer
 10
-1080.6541776985059187
 20
579.7897116229020185
 30
0.0
 11
-1366.09857961032003
 21
539.6731171170912376
 31
0.0
  0
LINE
  5
130
100
AcDbEntity
100
AcDbLine
  8
wahacz przedni
 62
256
370
-1
  6
DASHED
 10
-1390.8883633382783955
 20
381.5263396208313225
 30
0.0
 11
-1342.3578621447825299
 21
370.4779816427468973
 31
0.0
  0
ARC
  5
131
100
AcDbEntity
  8
wahacz przedni
 62
256
370
-1
  6
DASHED
100
AcDbCircle
 10
-1340.8040139025874851
 20
377.303342852252797
 30
0.0
 40
7.0
100
AcDbArc
 50
257.1747441146098367
 51
329.5695535724590286
  0
LINE
  5
132
100
AcDbEntity
100
AcDbLine
  8
wahacz przedni
 62
256
370
-1
  6
DASHED
 10
-1334.688650224594312
 20
373.8971239682285272
 30
0.0
 11
-1311.3684602372779864
 21
415.7650859718457923
 31
0.0
  0
ARC
  5
133
100
AcDbEntity
  8
wahacz przedni
 62
256
370
-1
  6
DASHED
100
AcDbCircle
 10
-1317.4838239152711594
 20
419.1713048558701189
 30
0.0
 40
7.0
100
AcDbArc
 50
330.8824697365799921
 51
77.1747441146098936
  0
LINE
  5
134
100
AcDbEntity
100
AcDbLine
  8
wahacz przedni
 62
256
370
-1
  6
DASHED
 10
-1390.2184258633558329
 20
442.9090277998413399
 30
0.0
 11
-1320.6659349609406036
 21
427.0748451959260592
 31
0.0
  0
ARC
  5
135
100
AcDbEntity
  8
wahacz przedni
 62
256
370
-1
  6
ByLayer
100
AcDbCircle
 10
-1381.3377566577285052
 20
427.5546444906149759
 30
0.0
 40
50.0
100
AcDbArc
 50
223.6028189727035738
 51
257.1747441146101778
  0
ARC
  5
136
100
AcDbEntity
  8
wahacz przedni
 62
256
370
-1
  6
ByLayer
100
AcDbCircle
 10
-1388.3991531916012718
 20
448.648376261335784
 30
0.0
 40
3.0
100
AcDbArc
 50
238.2547899051500053
 51
257.1747441146112578
  0
LINE
  5
137
100
AcDbEntity
100
AcDbLine
  8
amorek przedni
 62
256
370
-1
  6
ByLayer
 10
-1391.770737712465916
 20
381.727219226789714
 30
0.0
 11
-1343.7351501933342206
 21
370.7915323175826074
 31
0.0
  0
ARC
  5
138
100
AcDbEntity
  8
wahacz przedni
 62
256
370
-1
  6
DASHED2
100
AcDbCircle
 10
-1381.3377566577285052
 20
427.5546444906150327
 30
0.0
 40
47.0
100
AcDbArc
 50
223.6028189727036022
 51
257.1747441146100641
  0
LINE
  5
139
100
AcDbEntity
100
AcDbLine
  8
wahacz przedni
 62
256
370
-1
  6
DASHED
 10
-1410.9822475807200135
 20
455.5650736323403294
 30
0.0
 11
-1391.1309194004968504
 21
443.2829939639978534
 31
0.0
  0
ARC
  5
13A
100
AcDbEntity
  8
wahacz przedni
 62
256
370
-1
  6
ByLayer
100
AcDbCircle
 10
-1413.086818911495584
 20
452.163488779117074
 30
0.0
 40
4.0
100
AcDbArc
 50
58.2547899051497922
 51
184.5959929989351167
  0
LINE
  5
13B
100
AcDbEntity
100
AcDbLine
  8
wahacz przedni
 62
256
370
-1
  6
DASHED
 10
-1439.4837495372885314
 20
420.4579370141530603
 30
0.0
 11
-1415.3722394163492027
 21
395.1408513871667765
 31
0.0
  0
ARC
  5
13C
100
AcDbEntity
  8
wahacz przedni
 62
256
370
-1
  6
ByLayer
100
AcDbCircle
 10
-1436.5871978131506239
 20
423.2165577038081778
 30
0.0
 40
4.0
100
AcDbArc
 50
97.2616158789184482
 51
223.6028189727032611
  0
CIRCLE
  5
13D
100
AcDbEntity
100
AcDbCircle
  8
wahacz przedni
 62
256
370
-1
  6
ByLayer
 10
-1440.0
 20
450.0
 30
0.0
 40
23.0
  0
LINE
  5
13E
100
AcDbEntity
100
AcDbLine
  8
wahacz przedni
 62
256
370
-1
  6
ByLayer
 10
-1389.0650881525418754
 20
445.7232214572619
 30
0.0
 11
-1289.3175827898662646
 21
423.0149015436928153
 31
0.0
  0
LINE
  5
13F
100
AcDbEntity
100
AcDbLine
  8
wahacz przedni
 62
256
370
-1
  6
ByLayer
 10
-1084.2146567703568962
 20
269.3861532832680155
 30
0.0
 11
-1248.3740419026498785
 21
403.0543545409658464
 31
0.0
  0
ARC
  5
140
100
AcDbEntity
  8
wahacz przedni
 62
256
370
-1
  6
ByLayer
100
AcDbCircle
 10
-1311.5154148212225209
 20
325.5097414078944098
 30
0.0
 40
100.0
100
AcDbArc
 50
50.8454979023026041
 51
77.1747441146100215
  0
LINE
  5
141
100
AcDbEntity
100
AcDbLine
  8
wahacz przedni
 62
256
370
-1
  6
ByLayer
 10
-1114.4111849478892964
 20
229.5716435218657523
 30
0.0
 11
-1278.1094542711507529
 21
345.0525945906421725
 31
0.0
  0
LINE
  5
142
100
AcDbEntity
100
AcDbLine
  8
wahacz przedni
 62
256
370
-1
  6
ByLayer
 10
-1391.0428832489421893
 20
378.4847570772558356
 30
0.0
 11
-1313.5563620313521369
 21
360.8443288139040419
 31
0.0
  0
ARC
  5
143
100
AcDbEntity
  8
wahacz przedni
 62
256
370
-1
  6
ByLayer
100
AcDbCircle
 10
-1335.7541940627083932
 20
263.3391686781055796
 30
0.0
 40
100.0
100
AcDbArc
 50
54.798942505780488
 51
77.1747441146100215
  0
LINE
  5
144
100
AcDbEntity
100
AcDbLine
  8
vbrake przedni
 62
256
370
-1
  6
ByLayer
 10
-1255.9283202700687525
 20
285.1750559962990224
 30
0.0
 11
-1363.2550607877337825
 21
326.4784550072012621
 31
0.0
  0
LINE
  5
145
100
AcDbEntity
100
AcDbLine
  8
vbrake przedni
 62
256
370
-1
  6
ByLayer
 10
-1363.2550607877337825
 20
326.4784550072012621
 30
0.0
 11
-1377.2542008552554762
 21
331.8658548781882018
 31
0.0
  0
LINE
  5
146
100
AcDbEntity
100
AcDbLine
  8
vbrake przedni
 62
256
370
-1
  6
ByLayer
 10
-1377.2542008552554762
 20
331.8658548781882018
 30
0.0
 11
-1371.8668009842683659
 21
345.8649949457099524
 31
0.0
  0
LINE
  5
147
100
AcDbEntity
100
AcDbLine
  8
vbrake przedni
 62
256
370
-1
  6
ByLayer
 10
-1371.8668009842683659
 20
345.8649949457099524
 30
0.0
 11
-1357.8676609167464449
 21
340.4775950747225011
 31
0.0
  0
LINE
  5
148
100
AcDbEntity
100
AcDbLine
  8
vbrake przedni
 62
256
370
-1
  6
ByLayer
 10
-1357.8676609167464449
 20
340.4775950747225011
 30
0.0
 11
-1363.2550607877337825
 21
326.4784550072012621
 31
0.0
  0
LINE
  5
149
100
AcDbEntity
100
AcDbLine
  8
vbrake przedni
 62
256
370
-1
  6
ByLayer
 10
-1357.8676609167464449
 20
340.4775950747225011
 30
0.0
 11
-1273.8728205116171921
 21
308.1531958487992142
 31
0.0
  0
CIRCLE
  5
14A
100
AcDbEntity
100
AcDbCircle
  8
vbrake przedni
 62
256
370
-1
  6
ByLayer
 10
-1269.9220606062269781
 20
318.4192318983147061
 30
0.0
 40
7.0
  0
CIRCLE
  5
14B
100
AcDbEntity
100
AcDbCircle
  8
vbrake przedni
 62
256
370
-1
  6
ByLayer
 10
-1288.5875806962553725
 20
325.6024317262978798
 30
0.0
 40
7.0
  0
LINE
  5
14C
100
AcDbEntity
100
AcDbLine
  8
vbrake przedni
 62
256
370
-1
  6
ByLayer
 10
-1291.1017006360495998
 20
319.0694996947877371
 30
0.0
 11
-1272.436180546020978
 21
311.8862998668043929
 31
0.0
  0
LINE
  5
14D
100
AcDbEntity
100
AcDbLine
  8
vbrake przedni
 62
256
370
-1
  6
ByLayer
 10
-1267.4079406664327507
 20
324.952163929825133
 30
0.0
 11
-1286.0734607564615999
 21
332.1353637578079656
 31
0.0
  0
LINE
  5
14E
100
AcDbEntity
100
AcDbLine
  8
vbrake przedni
 62
256
370
-1
  6
ByLayer
 10
-1273.8728205116171921
 20
308.1531958487992142
 30
0.0
 11
-1266.6896206836336205
 21
326.8187159388301666
 31
0.0
  0
LINE
  5
14F
100
AcDbEntity
100
AcDbLine
  8
vbrake przedni
 62
256
370
-1
  6
ByLayer
 10
-1260.5947002925761353
 20
286.9708559532945173
 30
0.0
 11
-1248.0241005936052261
 21
319.6355161108461402
 31
0.0
  0
LINE
  5
150
100
AcDbEntity
100
AcDbLine
  8
vbrake przedni
 62
256
370
-1
  6
ByLayer
 10
-1243.3577205710987528
 20
317.8397161538483715
 30
0.0
 11
-1255.9283202700687525
 21
285.1750559962990224
 31
0.0
  0
LINE
  5
151
100
AcDbEntity
100
AcDbLine
  8
rama przednia
 62
256
370
-1
  6
ByLayer
 10
-1514.7320508075688394
 20
584.3012701892218956
 30
0.0
 11
-1564.7320508075688394
 21
497.6987298107781044
 31
0.0
  0
LINE
  5
152
100
AcDbEntity
100
AcDbLine
  8
rama przednia
 62
256
370
-1
  6
ByLayer
 10
-1514.7320508075688394
 20
584.3012701892218956
 30
0.0
 11
-1511.2679491924311606
 21
582.3012701892218956
 31
0.0
  0
LINE
  5
153
100
AcDbEntity
100
AcDbLine
  8
rama przednia
 62
256
370
-1
  6
ByLayer
 10
-1564.7320508075688394
 20
497.6987298107781044
 30
0.0
 11
-1561.2679491924311606
 21
495.6987298107781044
 31
0.0
  0
LINE
  5
154
100
AcDbEntity
100
AcDbLine
  8
rama przednia
 62
256
370
-1
  6
ByLayer
 10
-1511.2679491924311606
 20
582.3012701892218956
 30
0.0
 11
-1511.2679491924311606
 21
582.3012701892218956
 31
0.0
  0
ARC
  5
155
100
AcDbEntity
  8
rama przednia
 62
256
370
-1
  6
ByLayer
100
AcDbCircle
 10
-1509.3805984747436923
 20
579.570257523958162
 30
0.0
 40
3.0
100
AcDbArc
 50
99.2952211507495974
 51
150.00000000000054
  0
LINE
  5
156
100
AcDbEntity
100
AcDbLine
  8
rama przednia
 62
256
370
-1
  6
ByLayer
 10
-1529.6286733963863753
 20
550.4995630042119501
 30
0.0
 11
-1511.9786746860970652
 21
581.070257523958162
 31
0.0
  0
LINE
  5
157
100
AcDbEntity
100
AcDbLine
  8
rama przednia
 62
256
370
-1
  6
ByLayer
 10
-1527.9932242121276431
 20
547.5018973348934423
 30
0.0
 11
-1366.09857961032003
 21
539.6731171170912376
 31
0.0
  0
ARC
  5
158
100
AcDbEntity
  8
rama przednia
 62
256
370
-1
  6
ByLayer
100
AcDbCircle
 10
-1527.8966225888175359
 20
549.4995630042119501
 30
0.0
 40
2.0
100
AcDbArc
 50
149.99999999999946
 51
267.2314901583644655
  0
LINE
  5
159
100
AcDbEntity
100
AcDbLine
  8
rama przednia
 62
256
370
-1
  6
ByLayer
 10
-1511.2679491924311606
 20
582.3012701892218956
 30
0.0
 11
-1561.2679491924311606
 21
495.6987298107781044
 31
0.0
  0
ARC
  5
15A
100
AcDbEntity
  8
wahacz przedni
 62
256
370
-1
  6
ByLayer
100
AcDbCircle
 10
-1557.192514905820417
 20
496.7575890580959026
 30
0.0
 40
3.0
100
AcDbArc
 50
149.9999999999996021
 51
239.1285819925820988
  0
LINE
  5
15B
100
AcDbEntity
100
AcDbLine
  8
wahacz przedni
 62
256
370
-1
  6
ByLayer
 10
-1542.7209724946583265
 20
527.8230357781166049
 30
0.0
 11
-1559.7905911171737898
 21
498.2575890580959594
 31
0.0
  0
ARC
  5
15C
100
AcDbEntity
  8
wahacz przedni
 62
256
370
-1
  6
ByLayer
100
AcDbCircle
 10
-1540.1228962833049536
 20
526.3230357781166049
 30
0.0
 40
3.0
100
AcDbArc
 50
61.8227688915520943
 51
150.00000000000054
  0
LINE
  5
15D
100
AcDbEntity
100
AcDbLine
  8
wahacz przedni
 62
256
370
-1
  6
ByLayer
 10
-1429.3315762977322265
 20
470.3772488574850286
 30
0.0
 11
-1538.706294769762053
 21
528.9675092893902502
 31
0.0
  0
LINE
  5
15E
100
AcDbEntity
100
AcDbLine
  8
wahacz przedni
 62
256
370
-1
  6
ByLayer
 10
-1427.7133064523438861
 20
469.4444001439224508
 30
0.0
 11
-1389.9775816896828928
 21
446.0971876214184135
 31
0.0
  0
ARC
  5
15F
100
AcDbEntity
  8
wahacz przedni
 62
256
370
-1
  6
ByLayer
100
AcDbCircle
 10
-1443.4975914331605509
 20
443.9325137447482348
 30
0.0
 40
30.0
100
AcDbArc
 50
58.254789905149778
 51
61.822768891553558
  0
LINE
  5
160
100
AcDbEntity
100
AcDbLine
  8
wahacz przedni
 62
256
370
-1
  6
ByLayer
 10
-1460.3432527480772478
 20
435.3649043191775263
 30
0.0
 11
-1558.7318543336361927
 21
494.1826261212808618
 31
0.0
  0
LINE
  5
161
100
AcDbEntity
100
AcDbLine
  8
wahacz przedni
 62
256
370
-1
  6
ByLayer
 10
-1449.7920133266175071
 20
426.9316139929485985
 30
0.0
 11
-1417.5446532094526901
 21
393.0718858699253246
 31
0.0
  0
ARC
  5
162
100
AcDbEntity
  8
wahacz przedni
 62
256
370
-1
  6
ByLayer
100
AcDbCircle
 10
-1485.9989098783416921
 20
392.4488553722590609
 30
0.0
 40
50.0
100
AcDbArc
 50
43.6028189727034885
 51
59.1285819925812959
  0
LINE
  5
163
100
AcDbEntity
100
AcDbLine
  8
wahacz przedni
 62
256
370
-1
  6
ByLayer
 10
-1559.00142237563864
 20
494.3642955604997269
 30
0.0
 11
-1429.1419668781909422
 21
396.2134672931819068
 31
0.0
  0
ARC
  5
164
100
AcDbEntity
  8
wahacz przedni
 62
256
370
-1
  6
ByLayer
100
AcDbCircle
 10
-1368.8450512175861604
 20
475.9899172130542411
 30
0.0
 40
100.0
100
AcDbArc
 50
232.9171548935039198
 51
257.1747441146101778
  0
ARC
  5
165
100
AcDbEntity
  8
wahacz przedni
 62
256
370
-1
  6
DASHED
100
AcDbCircle
 10
-1539.7412119802629604
 20
524.9841323834368723
 30
0.0
 40
1.0
100
AcDbArc
 50
61.8227688915503322
 51
150.0000000000027001
  0
LINE
  5
166
100
AcDbEntity
100
AcDbLine
  8
wahacz przedni
 62
256
370
-1
  6
DASHED
 10
-1540.6072373840474938
 20
525.4841323834368723
 30
0.0
 11
-1556.7000622140678843
 21
497.6105421405353013
 31
0.0
  0
ARC
  5
167
100
AcDbEntity
  8
wahacz przedni
 62
256
370
-1
  6
DASHED
100
AcDbCircle
 10
-1555.8340368102833509
 20
497.1105421405352445
 30
0.0
 40
1.0
100
AcDbArc
 50
149.9999999999998863
 51
239.1285819925806209
  0
LINE
  5
168
100
AcDbEntity
100
AcDbLine
  8
wahacz przedni
 62
256
370
-1
  6
DASHED
 10
-1447.8969623890366165
 20
476.9191007469814849
 30
0.0
 11
-1539.2690114757485844
 21
525.8656235538614965
 31
0.0
  0
ARC
  5
169
100
AcDbEntity
  8
wahacz przedni
 62
256
370
-1
  6
DASHED
100
AcDbCircle
 10
-1449.3135639025795172
 20
474.2746272357077828
 30
0.0
 40
3.0
100
AcDbArc
 50
290.9905518640840114
 51
61.8227688915526059
  0
ARC
  5
16A
100
AcDbEntity
  8
wahacz przedni
 62
256
370
-1
  6
DASHED
100
AcDbCircle
 10
-1465.6080845848111949
 20
445.5026670239844861
 30
0.0
 40
3.0
100
AcDbArc
 50
239.1285819925820988
 51
9.9607990200501906
  0
LINE
  5
16B
100
AcDbEntity
100
AcDbLine
  8
wahacz przedni
 62
256
370
-1
  6
DASHED
 10
-1467.1474240126269706
 20
442.9277040871694453
 30
0.0
 11
-1556.3471499528886852
 21
496.2522211615968217
 31
0.0
  0
ARC
  5
16C
100
AcDbEntity
  8
rama przednia
 62
256
370
-1
  6
ByLayer
100
AcDbCircle
 10
-1070.0
 20
310.0
 30
0.0
 40
340.0
100
AcDbArc
 50
17.6662184902155666
 51
99.2952211507499243
  0
LINE
  5
16D
100
AcDbEntity
100
AcDbLine
  8
rama przednia
 62
256
370
-1
  6
ByLayer
 10
-1124.917313470783256
 20
645.5355252147702458
 30
0.0
 11
-1509.8651630053682311
 21
582.530865099382595
 31
0.0
  0
LINE
  5
16E
100
AcDbEntity
100
AcDbLine
  8
rama tylna
 62
256
370
-1
  6
ByLayer
 10
-440.8309518948452705
 20
190.0
 30
0.0
 11
-629.9465375558974074
 21
190.0
 31
0.0
  0
LINE
  5
16F
100
AcDbEntity
100
AcDbLine
  8
wahacz tylny
 62
256
370
-1
  6
ByLayer
 10
-242.6267733317325224
 20
205.1785832756413868
 30
0.0
 11
-380.0
 21
186.0
 31
0.0
  0
LINE
  5
170
100
AcDbEntity
100
AcDbLine
  8
rama tylna
 62
256
370
-1
  6
ByLayer
 10
96.2002272455457614
 20
274.7095472846935991
 30
0.0
 11
-176.7949898909799913
 21
232.7290214490679716
 31
0.0
  0
ARC
  5
171
100
AcDbEntity
  8
wahacz tylny
 62
256
370
-1
  6
ByLayer
100
AcDbCircle
 10
-173.5735035397033243
 20
230.1891495845417808
 30
0.0
 40
3.0
100
AcDbArc
 50
11.782965677461533
 51
98.7423203827661382
  0
LINE
  5
172
100
AcDbEntity
100
AcDbLine
  8
amorek tylny
 62
256
370
-1
  6
ByLayer
 10
-241.4944754480547147
 20
202.4004721362845203
 30
0.0
 11
-218.8485177744987027
 21
146.8382493491469631
 31
0.0
  0
LINE
  5
173
100
AcDbEntity
100
AcDbLine
  8
amorek tylny
 62
256
370
-1
  6
ByLayer
 10
-241.4944754480547147
 20
202.4004721362845203
 30
0.0
 11
-184.6986667739872132
 21
225.5492126788617213
 31
0.0
  0
LINE
  5
174
100
AcDbEntity
100
AcDbLine
  8
amorek tylny
 62
256
370
-1
  6
ByLayer
 10
-240.7396101922695095
 20
200.5483980433799331
 30
0.0
 11
-183.9438015182020081
 21
223.6971385859571342
 31
0.0
  0
LINE
  5
175
100
AcDbEntity
100
AcDbLine
  8
amorek tylny
 62
256
370
-1
  6
ByLayer
 10
-219.6033830302839078
 20
148.6903234420515503
 30
0.0
 11
-162.8075743562164064
 21
171.8390639846287513
 31
0.0
  0
LINE
  5
176
100
AcDbEntity
100
AcDbLine
  8
amorek tylny
 62
256
370
-1
  6
ByLayer
 10
-218.8485177744987027
 20
146.8382493491469631
 30
0.0
 11
-162.0527091004312013
 21
169.9869898917241642
 31
0.0
  0
LINE
  5
177
100
AcDbEntity
100
AcDbLine
  8
amorek tylny
 62
256
370
-1
  6
ByLayer
 10
-184.6986667739872132
 20
225.5492126788617213
 30
0.0
 11
-162.0527091004312013
 21
169.9869898917241642
 31
0.0
  0
LINE
  5
178
100
AcDbEntity
100
AcDbLine
  8
wahacz tylny
 62
256
370
-1
  6
ByLayer
 10
-218.1206392796048021
 20
143.8953056328816444
 30
0.0
 11
-147.5197890928810125
 21
172.6706818659530427
 31
0.0
  0
LINE
  5
179
100
AcDbEntity
100
AcDbLine
  8
wahacz tylny
 62
256
370
-1
  6
ByLayer
 10
105.0884874277718524
 20
225.5233316054368231
 30
0.0
 11
-144.0419264772464771
 21
173.7312756525577129
 31
0.0
  0
ARC
  5
17A
100
AcDbEntity
  8
wahacz tylny
 62
256
370
-1
  6
ByLayer
100
AcDbCircle
 10
-139.971136535029018
 20
154.1499409369071714
 30
0.0
 40
20.0
100
AcDbArc
 50
101.7440159462902187
 51
112.1747441146098652
  0
LINE
  5
17B
100
AcDbEntity
100
AcDbLine
  8
wahacz tylny
 62
256
370
-1
  6
ByLayer
 10
-171.2176562635133337
 20
233.5866899492625066
 30
0.0
 11
-158.1598017062026429
 21
170.9892999496154857
 31
0.0
  0
ARC
  5
17C
100
AcDbEntity
  8
wahacz tylny
 62
256
370
-1
  6
ByLayer
100
AcDbCircle
 10
-161.0965861358062341
 20
170.3766848877390601
 30
0.0
 40
3.0
100
AcDbArc
 50
292.1747441146096094
 51
11.7829656774608793
  0
LINE
  5
17D
100
AcDbEntity
100
AcDbLine
  8
vbrake tylny
 62
256
370
-1
  6
ByLayer
 10
-58.0706092313812334
 20
192.0674739462961327
 30
0.0
 11
-46.4082033781990049
 21
153.8053740337771274
 31
0.0
  0
LINE
  5
17E
100
AcDbEntity
100
AcDbLine
  8
vbrake tylny
 62
256
370
-1
  6
ByLayer
 10
-46.4082033781990049
 20
153.8053740337771274
 30
0.0
 11
-156.4117406266936428
 21
120.2759572058774609
 31
0.0
  0
LINE
  5
17F
100
AcDbEntity
100
AcDbLine
  8
vbrake tylny
 62
256
370
-1
  6
ByLayer
 10
-156.4117406266936428
 20
120.2759572058774609
 30
0.0
 11
-170.7600280938884225
 21
115.9025550109339235
 31
0.0
  0
LINE
  5
180
100
AcDbEntity
100
AcDbLine
  8
vbrake tylny
 62
256
370
-1
  6
ByLayer
 10
-170.7600280938884225
 20
115.9025550109339235
 30
0.0
 11
-175.1334302888323009
 21
130.2508424781292433
 31
0.0
  0
LINE
  5
181
100
AcDbEntity
100
AcDbLine
  8
vbrake tylny
 62
256
370
-1
  6
ByLayer
 10
-175.1334302888323009
 20
130.2508424781292433
 30
0.0
 11
-160.7851428216370664
 21
134.6242446730725248
 31
0.0
  0
LINE
  5
182
100
AcDbEntity
100
AcDbLine
  8
vbrake tylny
 62
256
370
-1
  6
ByLayer
 10
-160.7851428216370664
 20
134.6242446730725248
 30
0.0
 11
-156.4117406266936428
 21
120.2759572058774609
 31
0.0
  0
LINE
  5
183
100
AcDbEntity
100
AcDbLine
  8
vbrake tylny
 62
256
370
-1
  6
ByLayer
 10
-160.7851428216370664
 20
134.6242446730725248
 30
0.0
 11
-74.6954180184673078
 21
160.8646578427331519
 31
0.0
  0
LINE
  5
184
100
AcDbEntity
100
AcDbLine
  8
vbrake tylny
 62
256
370
-1
  6
ByLayer
 10
-74.6954180184673078
 20
160.8646578427331519
 30
0.0
 11
-81.9844216767070435
 21
184.7784702880600207
 31
0.0
  0
CIRCLE
  5
185
100
AcDbEntity
100
AcDbCircle
  8
vbrake tylny
 62
256
370
-1
  6
ByLayer
 10
-77.9025796280923828
 20
171.3867353186756759
 30
0.0
 40
7.0
  0
CIRCLE
  5
186
100
AcDbEntity
100
AcDbCircle
  8
vbrake tylny
 62
256
370
-1
  6
ByLayer
 10
-97.0336295843523402
 20
165.5555323920846149
 30
0.0
 40
7.0
  0
LINE
  5
187
100
AcDbEntity
100
AcDbLine
  8
vbrake tylny
 62
256
370
-1
  6
ByLayer
 10
-94.992708560045358
 20
158.8596649073934088
 30
0.0
 11
-75.8616586037854717
 21
164.6908678339846688
 31
0.0
  0
LINE
  5
188
100
AcDbEntity
100
AcDbLine
  8
vbrake tylny
 62
256
370
-1
  6
ByLayer
 10
-79.943500652399365
 20
178.0826028033669672
 30
0.0
 11
-99.0745506086593224
 21
172.2513998767755368
 31
0.0
  0
LINE
  5
189
100
AcDbEntity
100
AcDbLine
  8
vbrake tylny
 62
256
370
-1
  6
ByLayer
 10
-51.1909658672639267
 20
152.3475733021292626
 30
0.0
 11
-62.8533717204467308
 21
190.6096732146502291
 31
0.0
  0
LINE
  5
18A
100
AcDbEntity
100
AcDbLine
  8
rama tylna
 62
256
370
-1
  6
ByLayer
 10
-480.0
 20
190.0
 30
0.0
 11
-480.0
 21
186.0
 31
0.0
  0
LINE
  5
18B
100
AcDbEntity
100
AcDbLine
  8
rama tylna
 62
256
370
-1
  6
ByLayer
 10
-480.0
 20
186.0
 30
0.0
 11
-380.0
 21
186.0
 31
0.0
  0
LINE
  5
18C
100
AcDbEntity
100
AcDbLine
  8
rama tylna
 62
256
370
-1
  6
ByLayer
 10
-380.0
 20
186.0
 30
0.0
 11
-380.0
 21
190.0
 31
0.0
  0
LINE
  5
18D
100
AcDbEntity
100
AcDbLine
  8
rama tylna
 62
256
370
-1
  6
ByLayer
 10
-380.0
 20
190.0
 30
0.0
 11
-480.0
 21
190.0
 31
0.0
  0
ARC
  5
18E
100
AcDbEntity
  8
rama tylna
 62
256
370
-1
  6
ByLayer
100
AcDbCircle
 10
-440.8309518948452705
 20
193.0
 30
0.0
 40
3.0
100
AcDbArc
 50
270.0
 51
294.8981492651460599
  0
LINE
  5
18F
100
AcDbEntity
100
AcDbLine
  8
rama tylna
 62
256
370
-1
  6
ByLayer
 10
-180.2032789634254186
 20
407.6603590872083487
 30
0.0
 11
-299.2047011045114004
 21
265.8399867267488048
 31
0.0
  0
LINE
  5
190
100
AcDbEntity
100
AcDbLine
  8
rama tylna
 62
256
370
-1
  6
ByLayer
 10
-439.5679323518219803
 20
190.2788271583853543
 30
0.0
 11
-333.7084939822995011
 21
239.4129863082471559
 31
0.0
  0
ARC
  5
191
100
AcDbEntity
  8
rama tylna
 62
256
370
-1
  6
ByLayer
100
AcDbCircle
 10
-375.8091454164092511
 20
330.1187476954027034
 30
0.0
 40
100.0
100
AcDbArc
 50
294.8981492651458893
 51
320.0000000000000568
  0
ARC
  5
192
100
AcDbEntity
  8
wahacz tylny
 62
256
370
-1
  6
ByLayer
100
AcDbCircle
 10
-403.0746607557916263
 20
173.0
 30
0.0
 40
20.0
100
AcDbArc
 50
162.8972710309476497
 51
197.1027289690523503
  0
LINE
  5
193
100
AcDbEntity
100
AcDbLine
  8
wahacz tylny
 62
256
370
-1
  6
ByLayer
 10
-420.6516130626115455
 20
183.8822575465125624
 30
0.0
 11
-422.1902409302306296
 21
178.8817169767504538
 31
0.0
  0
LINE
  5
194
100
AcDbEntity
100
AcDbLine
  8
wahacz tylny
 62
256
370
-1
  6
ByLayer
 10
-380.0
 20
186.0
 30
0.0
 11
-417.7842760364457035
 21
186.0
 31
0.0
  0
ARC
  5
195
100
AcDbEntity
  8
wahacz tylny
 62
256
370
-1
  6
ByLayer
100
AcDbCircle
 10
-417.7842760364457035
 20
183.0
 30
0.0
 40
3.0
100
AcDbArc
 50
90.0
 51
162.8972710309477065
  0
LINE
  5
196
100
AcDbEntity
100
AcDbLine
  8
wahacz tylny
 62
256
370
-1
  6
ByLayer
 10
-422.1902409302306296
 20
167.1182830232495462
 30
0.0
 11
-420.6516130626115455
 21
162.1177424534874376
 31
0.0
  0
ARC
  5
197
100
AcDbEntity
  8
wahacz tylny
 62
256
370
-1
  6
ByLayer
100
AcDbCircle
 10
-417.7842760364457035
 20
163.0
 30
0.0
 40
3.0
100
AcDbArc
 50
197.1027289690522935
 51
270.0
  0
LINE
  5
198
100
AcDbEntity
100
AcDbLine
  8
wahacz tylny
 62
256
370
-1
  6
ByLayer
 10
-417.7842760364457035
 20
160.0
 30
0.0
 11
-385.7206083505441825
 21
160.0
 31
0.0
  0
ARC
  5
199
100
AcDbEntity
  8
wahacz tylny
 62
256
370
-1
  6
ByLayer
100
AcDbCircle
 10
-385.7206083505441825
 20
60.0
 30
0.0
 40
100.0
100
AcDbArc
 50
83.4518025530102818
 51
90.0
  0
ARC
  5
19A
100
AcDbEntity
  8
wahacz tylny
 62
256
370
-1
  6
ByLayer
100
AcDbCircle
 10
-225.6692918374567967
 20
162.4160465619274873
 30
0.0
 40
20.0
100
AcDbArc
 50
263.4518025530103387
 51
292.1747441146098936
  0
LINE
  5
19B
100
AcDbEntity
100
AcDbLine
  8
wahacz tylny
 62
256
370
-1
  6
ByLayer
 10
-227.9500712449780053
 20
142.546521019171621
 30
0.0
 11
-374.3167113129380823
 21
159.3476277137792749
 31
0.0
  0
LINE
  5
19C
100
AcDbEntity
100
AcDbLine
  8
0
 62
256
370
-1
  6
ByLayer
 10
-1530.0
 20
550.0
 30
0.0
 11
-1070.0
 21
580.0
 31
0.0
  0
LINE
  5
19D
100
AcDbEntity
100
AcDbLine
  8
0
 62
256
370
-1
  6
ByLayer
 10
-440.0
 20
190.0
 30
0.0
 11
-440.0
 21
210.0
 31
0.0
  0
LINE
  5
19E
100
AcDbEntity
100
AcDbLine
  8
0
 62
256
370
-1
  6
ByLayer
 10
-440.0
 20
210.0
 30
0.0
 11
-480.0
 21
210.0
 31
0.0
  0
LINE
  5
19F
100
AcDbEntity
100
AcDbLine
  8
0
 62
256
370
-1
  6
ByLayer
 10
-480.0
 20
210.0
 30
0.0
 11
-480.0
 21
190.0
 31
0.0
  0
LINE
  5
1A0
100
AcDbEntity
100
AcDbLine
  8
0
 62
256
370
-1
  6
ByLayer
 10
-680.9478281417111702
 20
355.4481427631669703
 30
0.0
 11
-578.915995190338208
 21
294.1290930953007887
 31
0.0
  0
LINE
  5
1A1
100
AcDbEntity
100
AcDbLine
  8
0
 62
256
370
-1
  6
ByLayer
 10
-696.4012181179242589
 20
329.7344744475983589
 30
0.0
 11
-594.3693851665512966
 21
268.4154247797321773
 31
0.0
  0
LINE
  5
1A2
100
AcDbEntity
100
AcDbLine
  8
0
 62
256
370
-1
  6
ByLayer
 10
-157.5859116709644923
 20
452.6890056761218375
 30
0.0
 11
-597.5859116709644923
 21
252.6890056761218659
 31
0.0
  0
LINE
  5
1A3
100
AcDbEntity
100
AcDbLine
  8
0
 62
256
370
-1
  6
ByLayer
 10
-434.6538374112643623
 20
228.2444245001348975
 30
0.0
 11
-184.8571477158984635
 21
449.2184192306508521
 31
0.0
  0
LINE
  5
1A4
100
AcDbEntity
100
AcDbLine
  8
0
 62
256
370
-1
  6
ByLayer
 10
-751.7583661630786764
 20
318.8457184292246893
 30
0.0
 11
-434.6538374112643623
 21
228.2444245001348975
 31
0.0
  0
LINE
  5
1A5
100
AcDbEntity
100
AcDbLine
  8
0
 62
256
370
-1
  6
ByLayer
 10
-427.089201877934272
 20
194.8826291079812165
 30
0.0
 11
-164.9799312498076063
 21
426.7485223559394285
 31
0.0
  0
LINE
  5
1A6
100
AcDbEntity
100
AcDbLine
  8
0
 62
256
370
-1
  6
ByLayer
 10
-760.0
 20
290.0
 30
0.0
 11
-427.089201877934272
 21
194.8826291079812165
 31
0.0
  0
LINE
  5
1A7
100
AcDbEntity
100
AcDbLine
  8
0
 62
256
370
-1
  6
ByLayer
 10
-184.8571477158984635
 20
449.2184192306508521
 30
0.0
 11
-164.9799312498076063
 21
426.7485223559394285
 31
0.0
  0
LINE
  5
1A8
100
AcDbEntity
100
AcDbLine
  8
0
 62
256
370
-1
  6
ByLayer
 10
-157.5859116709644923
 20
452.6890056761218375
 30
0.0
 11
-170.0
 21
480.0
 31
0.0
  0
LINE
  5
1A9
100
AcDbEntity
100
AcDbLine
  8
0
 62
256
370
-1
  6
ByLayer
 10
100.0
 20
250.0
 30
0.0
 11
-380.0
 21
180.0
 31
0.0
  0
LINE
  5
1AA
100
AcDbEntity
100
AcDbLine
  8
0
 62
256
370
-1
  6
ByLayer
 10
-740.0
 20
340.0
 30
0.0
 11
-860.0
 21
490.0
 31
0.0
  0
LINE
  5
1AB
100
AcDbEntity
100
AcDbLine
  8
0
 62
256
370
-1
  6
ByLayer
 10
-860.0
 20
490.0
 30
0.0
 11
-1070.0
 21
580.0
 31
0.0
  0
LINE
  5
1AC
100
AcDbEntity
100
AcDbLine
  8
0
 62
256
370
-1
  6
ByLayer
 10
-1089.9254109208443424
 20
267.2772293752835822
 30
0.0
 11
-1538.706294769762053
 21
528.9675092893902502
 31
0.0
  0
LINE
  5
1AD
100
AcDbEntity
100
AcDbLine
  8
0
 62
256
370
-1
  6
ByLayer
 10
-580.1355634532910699
 20
293.5747438848677007
 30
0.0
 11
-555.3073867952200544
 21
238.9527552371114041
 31
0.0
  0
LINE
  5
1AE
100
AcDbEntity
100
AcDbLine
  8
0
 62
256
370
-1
  6
ByLayer
 10
-170.0
 20
480.0
 30
0.0
 11
-612.2379602901303315
 21
278.9827453226680518
 31
0.0
  0
LINE
  5
1AF
100
AcDbEntity
100
AcDbLine
  8
0
 62
256
370
-1
  6
ByLayer
 10
-848.1824210426249238
 20
517.5743509005417309
 30
0.0
 11
-1058.1824210426250374
 21
607.5743509005417309
 31
0.0
  0
LINE
  5
1B0
100
AcDbEntity
100
AcDbLine
  8
0
 62
256
370
-1
  6
ByLayer
 10
-1531.9523741203679492
 20
579.9364031789745013
 30
0.0
 11
-1064.7846213463228651
 21
610.4038653164121797
 31
0.0
  0
ENDSEC
  0
SECTION
  2
OBJECTS
  0
DICTIONARY
  5
C
100
AcDbDictionary
280
0
281
1
  3
ACAD_GROUP
350
D
  3
ACAD_LAYOUT
350
1A
  3
ACAD_MLINESTYLE
350
17
  3
ACAD_PLOTSETTINGS
350
19
  3
ACAD_PLOTSTYLENAME
350
E
  3
AcDbVariableDictionary
350
1B1
  0
DICTIONARY
  5
D
100
AcDbDictionary
280
0
281
1
  0
ACDBDICTIONARYWDFLT
  5
E
100
AcDbDictionary
281
1
  3
Normal
350
F
100
AcDbDictionaryWithDefault
340
F
  0
ACDBPLACEHOLDER
  5
F
  0
DICTIONARY
  5
17
100
AcDbDictionary
280
0
281
1
  3
Standard
350
18
  0
MLINESTYLE
  5
18
100
AcDbMlineStyle
  2
STANDARD
 70
0
  3

 62
256
 51
90.0
 52
90.0
 71
2
 49
0.5
 62
256
  6
BYLAYER
 49
-0.5
 62
256
  6
BYLAYER
  0
DICTIONARY
  5
19
100
AcDbDictionary
280
0
281
1
  0
DICTIONARY
  5
1A
100
AcDbDictionary
281
1
  3
Layout1
350
1E
  3
Layout2
350
26
  3
Model
350
22
  0
LAYOUT
  5
1E
100
AcDbPlotSettings
  1

  2
C:\Program Files\AutoCAD 2002\plotters\DWF ePlot (optimized for plotting).pc3
  4

  6

 40
0.0
 41
0.0
 42
0.0
 43
0.0
 44
0.0
 45
0.0
 46
0.0
 47
0.0
 48
0.0
 49
0.0
140
0.0
141
0.0
142
1.0
143
1.0
 70
688
 72
0
 73
0
 74
5
  7

 75
16
147
1.0
148
0.0
149
0.0
100
AcDbLayout
  1
Layout1
 70
1
 71
1
 10
0.0
 20
0.0
 11
420.0
 21
297.0
 12
0.0
 22
0.0
 32
0.0
 14
100000000000000000000.0
 24
100000000000000000000.0
 34
100000000000000000000.0
 15
-100000000000000000000.0
 25
-100000000000000000000.0
 35
-100000000000000000000.0
146
0.0
 13
0.0
 23
0.0
 33
0.0
 16
1.0
 26
0.0
 36
0.0
 17
0.0
 27
1.0
 37
0.0
 76
0
330
1B
  0
LAYOUT
  5
22
100
AcDbPlotSettings
  1

  2
C:\Program Files\AutoCAD 2002\plotters\DWF ePlot (optimized for plotting).pc3
  4

  6

 40
0.0
 41
0.0
 42
0.0
 43
0.0
 44
0.0
 45
0.0
 46
0.0
 47
0.0
 48
0.0
 49
0.0
140
0.0
141
0.0
142
1.0
143
1.0
 70
1712
 72
0
 73
0
 74
0
  7

 75
0
147
1.0
148
0.0
149
0.0
100
AcDbLayout
  1
Model
 70
1
 71
0
 10
0.0
 20
0.0
 11
12.0
 21
9.0
 12
0.0
 22
0.0
 32
0.0
 14
0.0
 24
0.0
 34
0.0
 15
0.0
 25
0.0
 35
0.0
146
0.0
 13
0.0
 23
0.0
 33
0.0
 16
1.0
 26
0.0
 36
0.0
 17
0.0
 27
1.0
 37
0.0
 76
0
330
1F
  0
LAYOUT
  5
26
100
AcDbPlotSettings
  1

  2
C:\Program Files\AutoCAD 2002\plotters\DWF ePlot (optimized for plotting).pc3
  4

  6

 40
0.0
 41
0.0
 42
0.0
 43
0.0
 44
0.0
 45
0.0
 46
0.0
 47
0.0
 48
0.0
 49
0.0
140
0.0
141
0.0
142
1.0
143
1.0
 70
688
 72
0
 73
0
 74
5
  7

 75
16
147
1.0
148
0.0
149
0.0
100
AcDbLayout
  1
Layout2
 70
1
 71
2
 10
0.0
 20
0.0
 11
12.0
 21
9.0
 12
0.0
 22
0.0
 32
0.0
 14
0.0
 24
0.0
 34
0.0
 15
0.0
 25
0.0
 35
0.0
146
0.0
 13
0.0
 23
0.0
 33
0.0
 16
1.0
 26
0.0
 36
0.0
 17
0.0
 27
1.0
 37
0.0
 76
0
330
23
  0
DICTIONARY
  5
1B1
100
AcDbDictionary
281
1
  3
DIMASSOC
350
1B3
  3
HIDETEXT
350
1B2
  0
DICTIONARYVAR
  5
1B2
100
DictionaryVariables
280
0
  1
2
  0
DICTIONARYVAR
  5
1B3
100
DictionaryVariables
280
0
  1
1
  0
ENDSEC
  0
EOF
